#----------------------------------PLEASE NOTE---------------------------------#
#This file is the author's own work and represents their interpretation of the #
#song. You may only use this file for private study, scholarship, or research. #
#------------------------------------------------------------------------------##
--------------------------------------------------------------------------
Group: Faith No More
Song : Digging The Grave
Album: King For A Day, Fool For A Lifetime
Transcribed by: Martin van Aert (email: [email protected])
I may have messed up the Interlude-part, but the rest is pretty accurate.
Just use loads of distortion and a slight delay (aprox. 100 ms). Enjoy it!
Any suggestions and/or comments on this piece are welkom. I'm also still
looking for a good version of the Smashing Pumpkins version of Landslide.
--------------------------------------------------------------------------
Symbols:
pm = Palm Mute
/ = Slide Up
= Slide Down
^ = String Bend
VERSE:
w/heavy dist.
E |-----------------|-----------------|-----------------|-----------------|
B |-----------------|-----------------|-----------------|-----------------|
G |-5-5-5-5-5-5-5-5-|---------------6-/-7-7-7-7-7-7-7-7-|---------------4-/
D |-5-5-5-5-5-5-5-5-|-6-6-6-6-6-6-6-6-/-7-7-7-7-7-7-7-7-|-8-8-8-8-8-8-8-4-/
A |-3-3-3-3-3-3-3-3-|-6-6-6-6-6-6-6-4-/-5-5-5-5-5-5-5-5-|-8-8-8-8-8-8-8-2-/
E |-----------------|-4-4-4-4-4-4-4---|-----------------|-6-6-6-6-6-6-6---|
pm----------------------------- pm---------------------------
E |-----------------|-----------------|-----------------|-------------6-6-|
B |-----------------|-----------------|-----------------|-----------6-6-6-|
G /-5-5-5-5-5-5-5-5-|---------------6-/-7-7-7-7-7-7-7-7-|---------7-7-7-7-|
D /-5-5-5-5-5-5-5-5-|-6-6-6-6-6-6-6-6-/-7-7-7-7-7-7-7-7-|-8-8-8-8-8-8-8-8-|
A /-3-3-3-3-3-3-3-3-|-6-6-6-6-6-6-6-4-/-5-5-5-5-5-5-5-5-|-8-8-8-8-8-8-8-8-|
E |-----------------|-4-4-4-4-4-4-4---|-----------------|-6-6-6-6-6-6-6-6-|
pm--------------------------- pm-------------------
REPEAT LAST 4 BARS 2X
E |-3---3---3-3-3-3-|-4---4---4-4-4-4-|-5---5---5-5-5-5-|-6---6---6-6-6-6-|
B |-5---5---5-5-5-5-|-4---4---4-4-4-4-|-7---7---7-7-7-7-|-6---6---6-6-6-6-|
G |-5---5---5-5-5-5-|-5---5---5-5-5-5-|-7---7---7-7-7-7-|-7---7---7-7-7-7-|
D |-5---5---5-5-5-5-|-6---6---6-6-6-6-|-7---7---7-7-7-7-|-8---8---8-8-8-8-|
A |-3---3---3-3-3-3-|-6---6---6-6-6-6-|-5---5---5-5-5-5-|-8---8---8-8-8-8-|
E |-----------------|-4---4---4-4-4-4-|-----------------|-6---6---6-6-6-6-|

CHORUS:
E |-----------------|-----------------|-----------------|-----------------|
B |-----------------|-----------------|-----------------|-----------------|
G |-9-9-9-----9-----|-9-9-9-----9-----|-9-9-9-----9-----|-9-9-9-----9-----|
D |-9-9---9-----9---|-1010--10----10--|-9-9---9-----9---|-1010--10--------|
A |-7-7-------------|-1010------------|-7-7-------------|-1010------------|
E |-7-7-------------|-8-8-------------|-7-7-------------|-8-8---------127|
let ring-------------------------------------------------------------
E |-----------------|-----------------|-----------------|-----------------|
B |-----------------|-----------------|-----------------|-----------------|
G |-----------7-7-7-|-----------------|-----------7-7-7-|-----------------|
D |-9-97/9---7-7-7-|-9-97/9---101010|-9-97/9---7-7-7-|-9-97/9---101010|
A |-9-97/9---5-5-5-|-9-97/9---101010|-9-97/9---5-5-5-|-9-97/9---101010|
E |-7-75/7---------|-7-75/7---8-8-8-|-7-75/7---------|-7-75/7---8-8-8-|
REPEAT CHORUS 2X

INTERLUDE: (It's not correct but it sounds close)
4 BARS DRUM ONLY
REPEAT BAR 4X
E |-7-7-7-7-7-7-7-7-|
B |-7-7-7-7-7-7-7-7-|
G |-9-9-9-9-9-9-9-9-|
D |-9-9-9-9-9-9-9-9-|
A |-7-7-7-7-7-7-7-7-|
E |-----------------|
E |-0---0---0---0-0-|-0---0---0---0-0-|-3---3---3---3-3-|-0---0---0---0-0-|
B |-0---0---0---0-0-|-3---3---3---3-3-|-3---3---3---3-3-|-3---3---3---3-3-|
G |-0---0---0---0-0-|-2---2---2---2-2-|-0---0---0---0-0-|-2---2---2---2-2-|
D |-2---2---2---2-2-|-0---0---0---0-0-|-0---0---0---0-0-|-0---0---0---0-0-|
A |-2---2---2---2-2-|-0---0---0---0-0-|-2---2---2---2-2-|-0---0---0---0-0-|
E |-0---0---0---0-0-|-2---2---2---2-2-|-3---3---3---3-3-|-2---2---2---2-2-|
REPEAT BAR 4X
E |-8-8-8-8-8-8-8-8-|
B |-8-8-8-8-8-8-8-8-|
G |-9-9-9-9-9-9-9-9-|
D |-1010101010101010|
A |-1010101010101010|
E |-8---------------|
E |-----------------|-----------------|-----------------|-----------------|
B |-----------------|-----------------|-----------------|-----------------|
G |/4^--4^--4^--4^--|-4^--4^--4^--4^--|-4^--4^--4^--4^--|-4^--4^--4^--4^--|
D |-----------------|-----------------|-----------------|-----------------|
A |-----------------|-----------------|-----------------|-----------------|
E |-----------------|-----------------|-----------------|-----------------|
bend each note half a step up
E |-----------------|-----------------|-----------------|-----------------|
B |-----------------|-----------------|-----------------|-----------------|
G |-----------------|-----------------|-----------------|-----------------|
D |-2---2---9---9--|---2-2---9---9--|---2-2---9---9--|---2-2---9---9--|
A |-2---2---7---7--|-2-2-2---7---7--|-2-2-2---7---7--|-2-2-2---7---7--|
E |-0---0-----------|-0-0-0-----------|-0-0-0-----------|-0-0-0-----------|
pm pm pm pm pm pm
E |-----------------|-----------------|-----------------|-----------------|
B |-----------------|-----------------|-----------------|-----------------|
G |-----------------|-----------------|-----------------|-----------------|
D |---2-2---9---9--|---2-2---9---9--|---2-2---9---9--|---2-2---9---9--|
A |-2-2-2---7---7--|-2-2-2---7---7--|-2-2-2---7---7--|-2-2-2---7---7--|
E |-0-0-0-----------|-0-0-0-----------|-0-0-0-----------|-0-0-0-----------|
pm pm pm pm pm pm pm pm

SONG STRUCTURE:
VERSE/CHORUS/VERSE/CHORUS/INTERLUDE/CHORUS/VERSE

SONG TEXT:
It would be wrong to ask you why
Because I know what goes on inside
Is only half of what comes out
Isn't that what it's about?
To remind us we're alive
To remind us we're not blind
In that big, black hole
Comfortable
Digging the grave, I got it made
Let something in, or throw something out?
You left the door open wide
I know you have a reason why
That knot is better left untied
I just went and undid mine
It takes some time
And the shadows so big
It takes the sun out of the day
And the feeling goes away
If you close the door
Comfortable
--------------------------------------------------------------------------




Ваше мнение



Капча