Faith no more - ashes to ashes.
Tabbed by Craig Edwards, [email protected]

Faith no more - Ashes to Ashes
Drop D tuning
Intro
|-------------------|------------------|
|------3 times------|---4th time-------|
|-------------------|------------------|
|-------------------|------------------|
|--------3br---5br--|--------3br---5---|
|-1p0-0------0------|-1p0-0------0-----|
During verse
|---------------------------------|
|---------------------------------|
|---------------------------------|
|---12-12-12-12--12-12-12-12------|
|---------------------------------|
|---------------------------------|
Pre chorus
PM
|-------------------------|
|-------------------------|
|-------------------------|
|--0-0--------------------|
|--0-0--------------------|
|--0-0--/12--0--/12~------|
Chorus
|---------------------------------|
|---------------------------------|
|---------------------------------|
|-3-3-3-3-3-3-3-3-3-3-3-3-3-3-3-3-|
|-3-3-3-3-3-3-3-3-3-3-3-3-3-3-3-3-|
|-3-3-3-3-3-3-3-3-3-3-3-3-3-3-3-3-|
|-------------------------------------------------|
|-------------------------------------------------|
|-------------------------------------------------|
|-10-10-10-10-10-10-10-10-10-10-10-10-10-10-10-10-|
|-10-10-10-10-10-10-10-10-10-10-10-10-10-10-10-10-|
|-10-10-10-10-10-10-10-10-10-10-10-10-10-10-10-10-|
|---------------------------------|
|---------------------------------|
|---------------------------------|
|-3-3-3-3-3-3-3-3-3-3-3-3-3-3-3-3-|
|-3-3-3-3-3-3-3-3-3-3-3-3-3-3-3-3-|
|-3-3-3-3-3-3-3-3-3-3-3-3-3-3-3-3-|
|-----------------------------------
|-----------------------------------
|-----------------------------------
|-8-8-8-8-8-8-8-8-8-8-8-8--10-10-10-
|-8-8-8-8-8-8-8-8-8-8-8-8--10-10-10-
|-8-8-8-8-8-8-8-8-8-8-8-8--10-10-10-
Repeat Intro 4 times
Verse riff again
Pre chorus
Chorus
Heavy riff at the end of the second chorus
|---------------------|
|---------------------|
|---------------------|
|-0-0-3-0-3--/12-----|
|-0-0-3-0-3--/12-----|
|-0-0-3-0-3--/12-----|
Solo
full bend hold slight bend late
|--12-10-----------------------------------------|
|--------10~---------13^---13--------------------|
|-------------------------------10~--------9-----|
|------------------------------------------------|
|------------------------------------------------|
|------------------------------------------------|
full
|------------------------------------------|
|--11-10-----------------------------------|
|--------7---------10^-10-------9--/17-----|
|---------------10--------8~---------------|
|------------------------------------------|
|------------------------------------------|
Only drumming and singing
Chorus
heavy riff
And thats it,enjoy its a cool song to play




Ваше мнение



Капча