FABOLOUS:CANT LET YOU GO INTRO
-Ismael victor
Bellflower,ca
[email protected]
EMAIL ME IF YOU LIKE IT

Repeat-------------------}
e--------------------------------------|
B-5---4H5P4-4-55--5H7-7S9-7-5---4S6-4-6|
G-----------------------------6-4S6-4-6|
D--------------------------------------|
A-4-----------44-----------------------|
E--------------------------------------|

e--------------------------------------|
B-5---4H5P4-4-55--5H7-7S9-7-5---4S6-4-6|
G-----------------------------6-4S6-4-6|
D--------------------------------------|
A-4-----------44-----------------------|
E--------------------------------------|

e--------------------------------------|
B-5---4H5P4-4-55--5H7-7S9-7-5---4S6-4-6|
G-----------------------------6-4S6-4-6|
D--------------------------------------|
A-4-----------44-----------------------|
E--------------------------------------|

thats it i figured this one by myself and it sound okay and everyone
likes it when i play.
-Ismael victor
Bellflower,ca
[email protected]
EMAIL ME IF YOU LIKE IT




Ваше мнение



Капча