----------------------------------------------------------------------------
Can't Deny It- Fabolous
----------------------------------------------------------------------------
Tabbed by:MackDaddyMike24
Email:[email protected]
Tuning:Standard
This song if fun to play on guitar so I tabbed it for you all! Rate my tab please! HaVe FuN!
e|-------------------------------------------------------------------------|
B|-------------------------------------------------------------------------|
G|-------------------------------------------------------------------------|
D|-------------------------------------------------------------------------|
A|-------------------------------------------------------------------------|
E|0----00000000-3-7-3-7-3-7-7-5-3-5-0------------7-5-3-5-0-----------------|
e|-------------------------------------------------------------------------|
B|-------------------------------------------------------------------------|
G|-------------------------------------------------------------------------|
D|-------------------------------------------------------------------------|
A|-------------------------------------------------------------------------|
E|----3-7-3-7-3-7-7-5-3-5-0------------------------------------------------|
or you can do it this way
e|-------------------------------------------------------------------------|
B|-------------------------------------------------------------------------|
G|-------------------------------------------------------------------------|
D|-------------------------------------------------------------------------|
A|----------------2---2---2-2-0---0---------2-0---0------------------------|
E|0----00000000-3---3---3-------3---0-----------3---0----------------------|
e|-------------------------------------------------------------------------|
B|-------------------------------------------------------------------------|
G|-------------------------------------------------------------------------|
D|-------------------------------------------------------------------------|
A|------2---2---2-2-0---0--------------------------------------------------|
E|----3---3---3-------3---0------------------------------------------------|
That is it have fun!




Ваше мнение



Капча