e: Fri, 10 Apr 1998 12:52:19 +0100
From: Eduard Balcells
Subject: e/extremoduro/ama_ama_ama_y_ensancha_el_alma.crd

Song: Ama, ama, ama y ensancha el alma
Artist: Extremoduro
Album: Deltoya
Tabbed by: Eduard Balcells
--------------------------------
|:A :|
Ama.... ama.... ama..... Y ensancha el alma!
A E F#m C#m D
|------------|------------------------|------------|--------|
|.-----------|------------------------|-5---x-5----|5----x7-|
|---99999999-|-7--6--------7--6-------|------------|6----x7-|
|.-----------|-------9--7--------9--7-|------------|--------|
|------------|------------------------|------------|--------|
|------------|------------------------|------------|--------|
|:A |E |F#m |C#m D:| (repeat all over the song)
Quisiera que mi voz fuera tan fuerte
que a veces retumbaran las montanyas
y escucharais las mentes-social-adormecidas
las palabras de amor de mi garganta
A E F#m C#m D
|----------|----------|--------|--------|
|-------10-|-9--------|--------|-5---7--|
|-9--------|-----7----|-9------|-6---7--|
|----7-----|----------|----7---|--------|
|----------|----------|--------|--------|
|----------|----------|--------|--------|
Abrid los brazos, la mente y repartios
que solo os ensenyaron el odio y la avaricia
y yo quiero que todos como hermanos
repartamos amores, lagrimas y sonrisas.
De pequenyo me impusieron las costumbres,
me educaron para hombre adinerado
pero ahora prefiero ser un indio
que un importante abogado.
Hay que dejar el camino social alquitranado
porque en el se nos quedan pegadas las pezunyas
hay que volar libre al sol y al viento
repartiendo el amor que tengas dentro.
TAB by Eduard Balcells ([email protected])




Другие песни исполнителя

Deltoya
La Carrera (табы)


Ваше мнение



Капча