-##
Received: from animal-farm.nevada.edu by redrock.nevada.edu (5.65c/M1.4)
with SMTP id ; Wed, 21 Apr 1993 13:07:46 -0700
Received: from apocalypse.engr.ucf.edu by animal-farm.nevada.edu id ; Wed, 21 Apr 1993 13:07:43 -0700
Received: from conflict.engr.ucf.edu by apocalypse.engr.ucf.edu (4.1/SMI-4.1)
id AA08757; Wed, 21 Apr 93 16:06:12 EDT
Date: Wed, 21 Apr 93 16:06:12 EDT
From: [email protected] (Edward Westberg)
Message-Id:
To: [email protected]
Who Cares?
by Extreme (3 Sides To Every Story)
Starts at 4:43
e--------12---14---17b---16~~~~~-----19b----17---------
B---12--------------------------------------------14---
G------------------------------------------------------
D------------------------------------------------------
A------------------------------------------------------
E------------------------------------------------------
____
| 1. h h
e----17b----16------------|------------------12b-------
B----------------12~~~~~--|----12---14---15------------
G-------------------------|----------------------------
D-------------------------|----------------------------
A-------------------------|----------------------------
E-------------------------|----------------------------
h h Ending 1 |
e-------------------12b-------12-----------------------|
B----12---14---15-------------------12---14---15~~~~---|
G------------------------------------------------------|
D------------------------------------------------------|
A------------------------------------------------------|
E------------------------------------------------------|
____
| 2. Ending 2 |
e|-----------------------------------------------|
B|-12\11/12---14---12~~---12-11-10-9-10-11---12~~|
G|-----------------------------------------------|
D|-----------------------------------------------|
A|-----------------------------------------------|
E|-----------------------------------------------|

A second guitar (acoustic) comes in here.
Electric h
e------------------------------------------------------
B---9---10---10-12---9~~~~~~~~~------------------------
G------------------------------------------------------
D------------------------------------------------------
A------------------------------------------------------
E------------------------------------------------------
Acoustic
e------4---5---------4---5--------4---5----------------
B------------------------------------------------------
G---6-----------5-------------4------------------------
D------------------------------------------------------
A------------------------------------------------------
E------------------------------------------------------
---
Any comments, suggestions, etc...?
Ed
[email protected]




Ваше мнение



Капча