t. See http://www.olga.net/faq/ for more information. #
Date: Tue, 2 Nov 1999 13:29:10 -0800 (PST)
From: Cristian "'Sуcrates'" Franco
Subject: e/extreme/warheads.tab
WARHEADS
EXTREME
(Nuno Bettencourt, Gary Cherone)
Transcribed By Sуcrates
This is as I think that WARHEADS sounds, it is a
quite difficult song to
perform hearing, so any mistake that has, please
sendme a e-mail.
I think that the song is in 4/4 but in fact I didn't
occur the work of
separating it by compasses, the only part which I
separated by compasses
was the part of the solo, so I recommend you that
listen to the song well.
The part of the solo I take it from the tablature of
Aaron Shaw
, with some
alterations made by me,
Thanx Aaron.
Note: The sound of the siren which appears in the
introduction, could
imitate with the 7 harmonic on the G string and the
bar of your guitar.
Legend:
= artificial harmonics
() = natural harmonics
^ = pull-off & hammer-on
/\ = slide
x = dead note
~~~ = vibrato
... = palm mute
t = tapping
+Ѕ o +1 = prebend Ѕ o 1 tone
Well, after long hours working on this.
Here it goes!.

W A R H E A D S

Intro:
~ ~~~ ~
~~
|----------------------------------------------------------|
|-------------------------0-----------------------------8--|
|------0------------------7-----------------------------7--|
|-4^5----------0----------6--------0-------0---------6--|
|---------4^5-----0-------7-----------------------------7--|
|--------------------3^0--0---2^3-----4^5-----0------0--0--|
Fig.A:
. . . . . . . . . . .
.
|---------------------------------|---------------------------------|
|---------------------------------|---------------------------------|
|---------------------------------|---------------------------------|
|-----2^0---2^0----2^0---2^0---2--|------2^0---2^0-----2^0---2^0-0--|
|---------------------------------|---------------------------------|
|-3-3-----3------3-----3-----3----|--2-2-----2-----1-1-----1--------|End
Fig.A
Fig.B:
|-------------------------------------------------------------------|
|----------------------5----------------------5---------------------|
|------0---------------4----------------------4---------------------|
|--4^5-------0---------2------0-----0------2---------------------|
|--------4^5---0----------------------------------------------------|
|-----------------0----2^3---4^5---0-----0-----------------------|
{Fig.A}
Fig.B':
|-------------------------------------------------------------------|
|----------------------5----------------------5---------------------|
|------0---------------4----------------------4---------------------|
|--4^5-------0------2------0-----0---------2---------------------|
|--------4^5---0----------------------------------------------------|
|--------------------0----2^3---4^5---0--0-----------------------|End
Fig.B'
I verse: ___________________ ______________
|1. |2.
Ѕ+
||----------|------------------||--------------|--------------------------|
||----------|------------------||--------------|--------------------------|
||*---------|-----------------*||--------------|--------------------------|
||*---5--7\-|------5--7--5--7-*||--5--7--5--7--|------7--5--7-------------|
||----5--7\-|------5--7--5--7--||--5--7--5--7--|------7--5--7-3-----------|
||--0-3--5\-|-14\--3--5--3--5--||--3--5--3--5--|--0-3-5--3--5-----5--0-3--|
|--------------------|------------------|---------------------|
|--------------------|------------------|---------------------|
|--------------------|------------------|-------------6\4-----|
|--2-----------------|------------------|---------------------|
|--2---x-x-x-x-x-7^5-|--x-x-x-x-x-x-5^4-|-x-x-x-x-x-x-4\2-----|
|--0---x-x-x-x-x-----|--x-x-x-x-x-x-----|-x-x-x-x-x-x---------|
|----------------|--------------|---------|-------------------|
|----------------|--------------|---------|-------------------|
|----------------|--7-----7-----|---------|-------------------|
|----------------|--7--7--7--7--|---5--7\-|-----5--7--5--7----|
|-x-x-x-x--/12\--|--5--7--5--7--|---5--7\-|-----5--7--5--7----|
|-x-x-x-x--/12\--|-----5-----5--|-0-3--5\-|-17\-3--5--3--5----|
Ѕ+ Ѕ+
|---------------------||
|---------------------||
|---------------------||
|-----7---------------||
|-----7-3----------||
|-0-3-5-----5-------5-||End I Verse
w/bar
Bridge: ~ ~~ ~~~
|---------|-----|-----|-----|
|-----5---|--5--|--7--|--7--|
|-----5---|--6--|--7--|--8--|
|-----5---|--5--|--7--|--7--|
|---------|-----|-----|-----|
|-0-3-----|-----|-----|-----|
. . . . . .
. .
___________________
___________________
|1. |2.
||-----------------|-------------------||-------------------||
||-----------------|-------------------||-------------------||
||*----6/7---6/7---|-6/7---6/7---6/7--*||-------------------||
||*----5/6---5/6---|-5/6---5/6---5/6--*||-------------------||
||-----4/5---4/5---|-4/5---4/5---4/5---||-9-9-9-9-9-9-9-----||
||-0-0-----0-----0-|-----0-----0-------||-7-7-7-7-7-7-7-0^--||End
Bridge
Chorus:
Fig.C:
. . . . . . . . . . . . . .
. . . . . . . .
|-----------------|------------------|-------------------------------------|
|-----------------|------------------|-------------------------------------|
|-----------------|------------------|-------------------------------------|
|-----9-----9-----|-----9-----9------|-------------------------------------|
|-----7-----7-----|-----7-----7------|-8/9--9-9-8/9--9-9-8/9--9-9-8/9-9----|
|^0-0---0-0-------|-0-0---0-0--------|-6/7--7-7-6/7--7-7-6/7--7-7-6/7-7----|
. . . . . . . . . . . . . .
. . . . . . .
|-----------------|------------------|-------------------------------------|
|-----------------|------------------|-------------------------------------|
|-----------------|------------------|-------------------------------------|
|-----7-----7-----|-----7-----7------|-------------------------------------|
|-----5-----5-----|-----5-----5------|-6/7--7-7-6/7--7-7-6/7--7-7-7-9------|
|-0-0---0-0-------|-0-0---0-0--------|-4/5--5-5-4/5--5-5-4/5--5-5-5-7------|
End Fig.C
. . . . . . .
|-----------------|------------------|-------------------------------------|
|-----------------|------------------|-------------------------------------|
|-----------------|------------------|-------------------------------------|
|-----9-----9-----|-----9-----9------|-8/9--9-9-8/9--9-9-8/9--9-9-8/9-9----|
|-----7-----7-----|-----7-----7------|-8/9--9-9-8/9--9-9-8/9--9-9-8/9-9----|
|-0-0---0-0-------|-0-0---0-0--------|-6/7--7-7-6/7--7-7-6/7--7-7-6/7-7----|
. . . . . . .
|-----------------|------------------|-4/5--5-5-4/5--5-5-4/5--5-5-4/5------|
|-----------------|------------------|-4/5--5-5-4/5--5-5-4/5--5-5-4/5------|
|-----------------|------------------|-------------------------------------|
|-----7-----7-----|-----7-----7------|-------------------------------------|
|-----5-----5-----|-----5-----5------|-------------------------------------|
|-0-0---0-0-------|-0-0---0-0--------|----------------------------------0--|
{Fig.A}
~~ ~~
|-------------------------------------------------------------------|
|----------------------5----------------------5---------------------|
|------0---------------4----------------------4---------------------|
|--4^5-------0---------2------0-----0---------2---------------------|
|--------4^5---0----------------------------------------------------|
|-----------------0----2^3---4^5---0--3--0-----------------------|
II Verse: ___________________
Repeat a lot |1.
||----------5------------------|-------------------||
||-----------------------------|-------------------||
||*----------------------------|------------------*||
||*---5--7\--------------------|-------5--7--5--7-*||
||----5--7\--------------------|-------5--7--5--7--||
||--0-3--5\--------------------|-/15\--3--5--3--5--||
____________________________
|2.
t t
|-/3^5^3^5^10^5^3/5^8^5^10--|---------------|-------------------------|
|---------------------------|---------------|-------------------------|
|---------------------------|---------------|----------------------|
|---------------------------|------5-7-5-7--|-----7-------------------|
|---------------------------|-12\--5-7-5-7--|-----7----------------|
|---------------------------|------3-5-3-5--|-0-3-5-------5--------5--|
End II Verse
{Bridge}
{Fig.C}
. . . .
|----------------------|--------------------------------------|
|---------10---12-10-9-|--------------------------------------|
|---------9----11-9--9-|--------------------------------------|
|-----9----------------|-8/9--9-9-8/9--9-9-8/9--9-9-8/9-9-----|
|-----7----------------|-8/9--9-9-8/9--9-9-8/9--9-9-8/9-9-----|
|-0-0---0----0---------|-6/7--7-7-6/7--7-7-6/7--7-7-6/7-7-----|
. .
|------------------------------|---------------------------------------|
|------------------------------|---------------------------------------|
|------------------------------|---------------------------------------|
|-----4---4^5\--------4---4^5--|---------------------------------------|
|-/5-5--5------/5-5-5---5------|-6/7--7-7-6/7--7-7-6/7--7-7-6/7--7-7---|
|------------------------------|-4/5--5-5-4/5--5-5-4/5--5-5-4/5--5-5---|

Solo:
The figures of the solo are triplets, you will adapt
the rhythm of the
second guitar with the triplets of the solo.
|-----5-7-9-7-5----5-7-9-7-5-|----7-9-10-9-7-----7-9-10-9-7-----|
|----------------------------|----------------------------------|
|---9------------9-----------|-10-------------10----------------|
|----------------------------|----------------------------------|
|----------------------------|----------------------------------|
|----------------------------|----------------------------------|
| |
|
| |
|
| Rhythmic | |
|----------------------------|----------------------------------|
|----------------------------|----------------------------------|
|----------------------------|----------------------------------|
|----------------------------|-----10---------x------x----------|
|---7-----x------x-----x-----|-x---8----------x------x----------|
|---5-----x------x-----x-----|-x--------------------------------|

|----5-7-8-7-5----5-7-8-7-5-|---5-7-9-7-5----5-7-9-7-5----------|
|---------------------------|-----------------------------------|
|--8------------8-----------|-9------------9--------------------|
|---------------------------|-----------------------------------|
|---------------------------|-----------------------------------|
|---------------------------|-----------------------------------|
|
|
|
|
| ~~~~~~~~~
|
|---------------------------|-----------------------------------|
|---------------------------|-----------------------------------|
|---------------------------|-----------------------------------|
|--8-----x------x-----x-----|-----------------------------------|
|--6-----x------x-----x-----|-------7---------------------------|
|---------------------------|-7-7-------------------------------|

|----4-5-7-5-4----4-5-7-5-4-|----4-5-7-5-4----4-5-7-5-4---------|
|---------------------------|-----------------------------------|
|--7------------7-----------|--7------------7-------------------|
|---------------------------|-----------------------------------|
|---------------------------|-----------------------------------|
|---------------------------|-----------------------------------|
|
|
|
|
|
|
|---------------------------|-----------------------------------|
|---------------------------|-----------------------------------|
|---------------------------|-----------------------------------|
|--7-------7----------x-----|--x-----7--7---7--7----------------|
|--5-------5----------x-----|--x-----5--5---5--5----------------|
|---------------------------|-----------------------------------|

. . .
|-------------------------------|-----------------------5-7-9---|
|-------------------------------|----------------5-7-9----------|
|-----------------------6-7-9---|---------6-7-9-----------------|
|---------6-7-9--6-7-9----------|--6-7-9------------------------|
|-------------------------------|-------------------------------|
|--9-9-9------------------------|-------------------------------|
|
|
|
|
|
|
|-------------------------------|-------------------------------|
|-------------------------------|-------------------------------|
|-------------------6-----------|-------------------------------|
|-----6----------7--4-----------|--9----------------------------|
|--7--4----------5--------------|--7-------------7--------------|
|--5----------------------------|----------------5--------------|

. .
|-----------------------------------------|
|--------------------------------------16-|
|----------------------------13--14-16----|
|------------------13--14-16--------------|
|--------11--12-14------------------------|
|--12-12----------------------------------|
| |
| |
| |
|-----------------------------------------|
|-----------------------------------------|
|-----------------------------------------|
|-----------------------------------------|
|--2--------------------------------------|
|--0--------------------------------------|

|--------16--17-19-17--16-----------------|----------------------------|
|--17-19------------------19-17--16-------|----------------------------|
|-----------------------------------18-16-|------------------------|
|-----------------------------------------|----------------------------|
|-----------------------------------------|----------------------------|
|-----------------------------------------|----------------------------|
|
|
|
|
| . . .
. |
|-----------------------------------------|----------------------------|
|-----------------------------------------|----------------------------|
|-----------------------------------------|----------------------------|
|-----------------------------------------|----------------------------|
|-----------------------------------------|-------3-----3--------------|
|-----------------------------------------|---3-3---3-3----------------|
From here are only triplets, to the rest of the solo
I'm not very certain if
it's at 4/4 and I think that the tempo changes too, so
excuse me if the
separation of compasses is not the correct.
1+ 1+- 1+
1+-
|-----------------------|-----------------------|----------------------|
|-15-15-13----13/15\13--|----13-15-15--15-13----|-13^15^13-15-13-------|
|----------12-----------|-13-----------------13-|----------------13----|
|-----------------------|-----------------------|----------------------|
|-----------------------|-----------------------|----------------------|
|-----------------------|-----------------------|----------------------|
|
|
|
|
| . . . . . .
. |
|-----------------------|-----------------------|----------------------|
|-----------------------|-----------------------|----------------------|
|-----------------------|-----------------------|----------------------|
|-----------------------|-----------------------|----------------------|
|-----------------------|-----3-----3-----------|----------------------|
|-3---------------------|-4-4---4-4--------4----|----------------4-----|

1+ 1+-
1+
|-----------------------|-----------------------|-------------------15-|
|----13-15-15-15-13-----|-13^15^13-15-13--------|----13-15-15-15-13----|
|-14----------------14--|-----------------14----|-15-------------------|
|-----------------------|-----------------------|----------------------|
|-----------------------|-----------------------|----------------------|
|-----------------------|-----------------------|----------------------|
|
|
|
|
| . . . . . . . . .
. . . |
|-----------------------|-----------------------|----------------------|
|-----------------------|-----------------------|----------------------|
|-----------------------|-----------------------|----------------------|
|-----------------------|-----------------------|----------------------|
|-----3------3----------|----3------------------|-----3------3---------|
|-5-5----5-5-----5------|--5----------------5---|-6-6----6-6----6------|
Hey, really Nuno uses
a quite peculiar
technique here: as Aaron says, Nuno puts
his right hand in the frets 10,9,8 while
make the ligatures with his left hand.
I made some modifications: with the right
hand do a tap in the 10,9,8 and then
continue with your left hand making the
ligatures. (Turn on your Wha-Wha)
t
|-13^15^13-12----|-13^12------------------|
|-------------15-|-------15^13---10^13^15^|
|----------------|------------------------|
|----------------|------------------------|
|----------------|------------------------|
|----------------|------------------------|
| |
| |
| . . . |
|----------------|------------------------|
|----------------|------------------------|
|----------------|------------------------|
|----------------|------------------------|
|----3-----------|------------------------|
|-6--------------|-------------------5-5--|

t
|-------------------------------------------------------------------------|
|^17^13^10^13^10^13^17^13^10^13^10^13^17^13^10^13^10^13^17^13^10-9^13^15^-|
|-------------------------------------------------------------------------|
|-------------------------------------------------------------------------|
|-------------------------------------------------------------------------|
|-------------------------------------------------------------------------|
|
|
|
|
| . . . . . .
. . . |
|-------------------------------------------------------------------------|
|-------------------------------------------------------------------------|
|-------------------------------------------------------------------------|
|-------------------------------------------------------------------------|
|-3-----------------3--------------------------------3-----------------|
|----5--5--------------5--5----------------5--5----------------5---4--4---|

t
|-------------------------------------------------------------------------|
|^17^13^9^13^9^13^17^13^9^13^9^13^17^13^9^13^9^13^17^13^9-8^13^15^--------|
|-------------------------------------------------------------------------|
|-------------------------------------------------------------------------|
|-------------------------------------------------------------------------|
|-------------------------------------------------------------------------|
|
|
|
|
| . . . . . .
. . . |
|-------------------------------------------------------------------------|
|-------------------------------------------------------------------------|
|-------------------------------------------------------------------------|
|-------------------------------------------------------------------------|
|-3---------------3-----------------------------3----------------------|
|----4--4------------4--4--------------4--4-------------4---3---3---------|

|-----------------------------------------------------------------|
|^17^13^8^13^8^13^17^13^8^13^8^13^17^13^8^13^8^13^17^13^8---------|
|-----------------------------------------------------------------|
|-----------------------------------------------------------------|
|-----------------------------------------------------------------|
|-----------------------------------------------------------------|
|
|
|
|
| . . . . . . .
|
|-----------------------------------------------------------------|
|-----------------------------------------------------------------|
|-----------------------------------------------------------------|
|-----------------------------------------------------------------|
|-3---------------3--------------------------3-----------------|
|----3--3------------3--3--------------3--3---------3-------------|

Unison Bend on 3 ~~~~~~~~~~~~~~~~~~~~~~~
|-------------------------------------------------------------|
|--7-----10-------------------------------------------------------|
|--9-----12-------------------------------------------------------|
|-----------------------------------------------------------------|
|-----------------------------------------------------------------|
|-----------------------------------------------------------------|
|
|
|
|
|
|
|-----------------------------------------------------------------|
|-----------------------------------------------------------------|
|--7--------------------------------------------------------------|
|--7-----7----------------5---------------------------------------|
|--5-----7-----------5^7-----7^5----------------------------------|
|--------5------------------------8^0--5^0------------------------|End
SOLO
Semi-harmonics
Semi-harmonics
_________________________
|1.
||---------|-------------------------|--------|-------------------------||
||---------|-------------------------|--------|-------------------------||
||*--------|-------------------------|--7-----|------------------------*||
||*-5--2---|--2-2-2-2-2-2-2-2-2-2-2--|--7--7--|--7-7-7-7-7-7-7-7-7-7-7-*||
||--5--2---|--2-2-2-2-2-2-2-2-2-2-2--|--5--7--|--7-7-7-7-7-7-7-7-7-7-7--||
||--3--0---|--0-0-0-0-0-0-0-0-0-0-0--|-----5--|--5-5-5-5-5-5-5-5-5-5-5--||
_________________________
|2.
1+.-.+.-.+.-.+..t..-
|-----------------------------|
|-----------------------------|
|--4-----------------13^4-----|
|-----------------------------|
|-----------------------------|
|-----------------------------|

. .
|--------|----------------|--------|------------------|
|--------|----------------|--------|------------------|
|--------|----------------|--7-----|------------------|
|--5--2--|----------------|--7--7--|---7-5-4-----2----|
|--5--2--|---7-5-4----5---|--5--7--|-0--------/4---0--|
|--3--0--|-0-------/5---5-|-----5--|------------------|

.
|--------|----------------|-----------|
|--------|----------------|-----------|
|--------|----------------|-----7-----|
|--5--2--|----------------|--7--7--7--|
|--5--2--|---7-5-4----5---|--7--5--7--|
|--3--0--|-0-------/5-----|--5-----5--|

w/bar vibrato w/bar, up and
down, play it very loud
~ ~~ ~~~
whiwuhgrtskjuuuiioooorrghfffurrrrrmmmmmmrs
. . is a sound chaos!!!
|---------|-----|-----|-----|---------------------------------------|
|-----5---|--5--|--7--|--7--|---------------------------------------|
|-----5---|--6--|--7--|--8--|---------------------------------------|
|-----5---|--5--|--7--|--7--|---2-----------------------------------|
|---------|-----|-----|-----|---2-----------------------------------|
|-0-3-----|-----|-----|-----|---0-----------------------------------|
From now on I am not very certain of what he does,
Nuno plays a variety of
melodies that they turn out to be very complex, but
this is more or less
what I think that he does.
. . . . . . . . . . . . . .
. . . . . . . .
|-----------------|------------------|-------------------------------------|
|-----------------|------------------|-------------------------------------|
|-----------------|------------------|-------------------------------------|
|-----9-----9-----|-----9-----9------|-------------------------------------|
|-----7-----7-----|-----7-----7------|-8/9--9-9-8/9--9-9-8/9--9-9-8/9-9----|
|-0-0---0-0-------|-0-0---0-0--------|-6/7--7-7-6/7--7-7-6/7--7-7-6/7-7----|
. .
. . . . . . .
|-----------------|------------------|-4/5--5-5-4/5--5-5-4/5--5------------|
|-----------------|------------------|-4/5--5-5-4/5--5-5-4/5--5------------|
|-----------------|------------------|-------------------------------------|
|-----7-----7-----|-----7-----7------|-------------------------------------|
|-----5-----5-----|-----5-----5------|---------------------------9--9------|
|-0-0---0-0-------|-0-0---0-0--------|---------------------------7--7------|

. . . 1+
|-----------------------------|--------------------------------------------|
|-------------12--12--10------|-----------------9-10-12-10-9---------------|
|------------------------12-9-|----------8-9-11--------------11-9-11-------|
|-----9-----9-----------------|-7--7-8-9-----------------------------------|
|-----7-----7-----------------|--------------------------------------------|
|-0-0---0-0-------------------|--------------------------------------------|

|------------------------------------|-------------------------------------|
|------------------------------------|-------------------------------------|
|------------------------------------|-------------------------------------|
|-------4---4^5\---------------------|-6/7--7-7-6/7--7-7-6/7--7-7-7-9------|
|--5--5---5--------4-5-5-4-4--2^0-0--|-6/7--7-7-6/7--7-7-6/7--7-7-7-9------|
|------------------------------------|-4/5--5-5-4/5--5-5-4/5--5-5-5-7------|
. . . .
|-----------------------------|-6/7-7-7--6/7-7-7--6/7-7-7------------------|
|-----------------------------|-6/7-7-7--6/7-7-7--6/7-7-7------------------|
|-----------/9--9-9-8-8-6\4-4-|-3/4-4-4--3/4-4-4--6/7-7-7--6\4-4-----------|
|-----9-----------------------|--------------------------------------------|
|-----7-----------------------|--------------------------------------------|
|-0-0---0-0-------------------|--------------------------------------------|
. . . .
|-------------------------------|------------------------------------------|
|-------------------------------|------------------------------------------|
|------------/7--7-7-6-6-4\2-2--|-----------------/6-6-6-4-4-2\1-----------|
|-----7-------------------------|--------------------------------2---------|
|-----5-------------------------|------------------------------------------|
|-0-0----0-0--------------------|-4/5-5-5--4/5-5-5-------------------------|
. . .
=====
"Quedй desfallecido de escudriсar la verdad"
SУCRATES




Ваше мнение



Капча