Date: Sat, 21 Dec 1996 12:17:08 -0600 (CST)
From: Alan Estrada Adler
Subject: Tab of Unconditionally (fwd)
Well I tried and this is what I came up with. Drop the E down to D.
Maximize the screen because if you're looking at it in a small window it
won't look right. I hope you're using Netscape. I don't know what it's
going to look like with some other browser. Hope it turns out fine.
Tell me if it's sounds OK to you?
Unconditionally
Intro:
Eb-----------------------------3-3-----------------------3----------------------------------0------------
Bb-0----0-0-0-0----0-0---------3-3---0----0-0-0-0----0-0-3--------------------------------3---3-------3--
Gb----------------------0--0---0-0-----------------------0------------------------------2-------0-h-2----
Db-2-sl-4-4-4-4-sl-2-2--0--0---0-0---2-sl-4-4-4-4-sl-2-2-0---2-h-4-2-h-4-p-2-p-0------0------------------
Ab------------------------------------------------------------------------------2-0---------------------
Db------------------------------------------------------------------------------------------------------
----0---------------0------0----0---0-------------------------------3-3-------------------------3--
---3-3-------3-----3-3------3----3---2----0----0-0-0-0----0-0-------3-3---0----0-0-0-0----0-0---3--
--2----0-h-2------2----2------2---2---3-----------------------0--0--0-0-------------------------0--
-0---------------0------------------------2-sl-4-4-4-4-sl-2-2-0--0--0-0---2-sl-4-4-4-4-sl-2-2---0--
---------------------------------------------------------------------------------------------------
---------------------------------------------------------------------------------------------------
-------------------------------0--------------0----0------5-5-5---3-3-3---2-2-2-2-3-2-0------
---------------------------------3------3----3-3----3-----5-5-5---3-3-3---3-3-3-3-3-3-3------
-----------------------------2----0-h-2-----2---2----2----2-2-2---2-2-2---2-2-2-2-2-2-2------
-2-h-4--2-h-4-p-2-p-0-------0--------------0--------------0-0-0---0-0-0---0-0-0-0-0-0-0------
----------------------2-0--------------------------------------------------------------------
---------------------------0------------------------------0----------------------------------
Sounds like Nuno stays with the same thing throughout the Verse. There
are a little variances though.
I'm going to work on the rest of the song, and as I go I'll try to send
it out to you. With the Christmas holidays upon us I should have some
extra time on my hands because I'm out of college for the holidays.
Tell me what you think?
Adios,
Jaymz




Ваше мнение



Капча