-##
From: [email protected] (Jimmy Mahoginich)
--------
There is no god.
by ExtremE
from Waiting for the punchline.
tabbed by Arnold Gagnon
INTRO
w/mega reverb & phasing & fender twin
Let ring
-------------------------------------------------------------
-------------------------------------------------------------
--2---------------5-----7----2------5---7---2----5--5---2---- X 6
--2---------------5-----7----2------5---7---2----5--5---2----
--0---------------3-----5----0------3---5---0----3--3---0----
-------------------------------------------------------------
turn down the reverb
(riff 2) HARMONICS
-----------------------------------------------------------------
---------------------------------------------------7-7-7---------
---4--5--6-----------------------------------------7-7-7---------
---4--5--6-----------X-X------------X-X--------------------------
---2--3--4--5h7------X-X---5h7------X-X---5h7--------------------
----------------0-0--X-X-------0-0--X-X-------0-0----------------
verse
(riff 3)
------------------------------------------------------------------------------
--------------------------------------------15-15-15--------------------------
---12-14-14^-14^-14-12-14-14^-12---------------------12-14^-14-12-14-14^-12---
14-------------------------------14----repeat-------------------------------14
------------------------------------------------------------------------------
------------------------------------------------------------------------------
Chorus
(riff 4)
C G D B
--------------------------------------------------------------
--------------------------------------------------------------
---5------------------7------------------back to riff 2-------
---5--------5---------7-------9-------------------------------
---3--------5---------5-------9-------------------------------
------------3-----------------7-------------------------------
if someone has anymore new Extreme, post it....please.
------------




Ваше мнение



Капча