Naked by Extreme
Words and Music by Nuno Bettencourt and Gary Cherone
Tabbed by Aaron Shaw.Tune down a half step
Uses a slightly distorted sound,play intro and verses with volume knob
turned down,then turn it up to kick in distortion for bridge and choruses,
and solo.
Intro/Verse
---0----------------------------------|-----0---------------------|-----
---0--x--x--x--x----------------------|-----0--x\-\-\-------------|-----
-----------------------------2--------|-------------------2-------|-----
--------------------------------2-----|----------------------2----|-----
2-----------------------2h4-----------|--2-----------2h4----------|-----
0-----------------x--x-------------3bu|--0---------------------3bu|-----
Turn volume knob up here
-----------------------------------|------------|---------------
-----------------------------------|------------|---------------
-----------------------------------|--6-7-6-----|--11-12-11-----
-----------------------------------|------------|---------------
-----------------------------------|--4/5\4--0--|--9-/10\9---0--
-----------------------------------|------------|---------------
Chorus
---------------|--------------15--15--15--15---------------
---------------|-------------------------------------------
--16-18-16-----|--18-19-18---/12--12--12--12---------------
---------------|-------------------------------------------
--14/16\14-----|--16/17\16--0------------------------------
---------------|------------------------------10\----\----\
--------------------------|---------
--------------------------|---------
--------------------------|---------
--------------------------|---------
---2--5--7b-r7-5--2--5h7--|--x------
---0--3--5b-r5/3--0-------|---------
First solo
---------|-----------|---------|----------|-------------------------
---------|-----------|---------|----------|-------------------------
---------|---12bu----|--12--14b|--12bu----|------12--14b-r-b-14/12--
---------|-------14--|---------|------14--|--14---------------------
7--x--5--|-----------|---------|----------|-------------------------
5-----3--|-----------|---------|----------|-------------------------
----------------
----------------
----12--14------
14--------------
----------------
----------------
Very Fast
14b15--|--14--12--------------12--------------------------|--------------
-------|----------15--13--15------15--13--12--------------|----------15--
-------|--------------------------------------15--13--12--|--14b-r-b-----
-------|--------------------------------------------------|--------------
-------|--------------------------------------------------|--------------
-------|--------------------------------------------------|--------------
-------
-------
14b-r--
-------
-------
-------
There are other bits,I've worked them out,but they are (for example,
the second solo) impossible to tab out on a computer.Sorry!
----|---------------------------------------------------------------
----|---------------------------------------------------------------
12--|---------------------------------------------------------------
----|---------------------------------------------------------------
----|---------------------------------------------------------------
----|---------------------------------------------------------------
bu=bend up(blues curl)
b=bend(if followed by another note it means bend to that note
r=release the last bend.




Ваше мнение



Капча