#----------------------------------PLEASE NOTE---------------------------------#
#This file is the author's own work and represents their interpretation of the #
#song. You may only use this file for private study, scholarship, or research. #
#------------------------------------------------------------------------------#
#
Date: Tue, 30 Jan 1996 22:02:57 +0000
From: Aaron Shaw
Subject: Naked by Extreme
Naked by Extreme
Words and Music by Nuno Bettencourt and Gary Cherone
Tabbed by Aaron Shaw.Tune down a half step
Play this song on a Washburn N4 through a Vintage Fender Vibroverb.Or if you don't
have $10,000 worth of gear lying around,just play it loud:

---0----------------------------------|-----0---------------------|-------------
---0--x--x--x--x----------------------|-----0--x---------------|-------------
-----------------------------2--------|-------------------2-------|-------------
--------------------------------2-----|----------------------2----|-------------
2-----------------------2h4-----------|--2-----------2h4----------|-------------
0-----------------x--x-------------3bu|--0---------------------3bu|-------------

Then play that for the verse,play Turn volume knob up
-----------------------------------|------------|---------------|---------------
-----------------------------------|------------|---------------|---------------
-----------------------------------|--6-7-6-----|--11-12-11-----|--16-18-16-----
-----------------------------------|------------|---------------|---------------
-----------------------------------|--4/54--0--|--9-/109---0--|--14/1614-----
-----------------------------------|------------|---------------|---------------

Chorus
|--------------15--15--15--15---------------|--------------------------|---------
|-------------------------------------------|--------------------------|---------
|--18-19-18---/12--12--12--12---------------|--------------------------|---------
|-------------------------------------------|--------------------------|---------
|--16/1716--0------------------------------|---2--5--7b-r7-5--2--5h7--|--x------
|------------------------------10--------|---0--3--5b-r5/3--0-------|---------

First solo
---------|-----------|---------|----------|-----------------------------------------
---------|-----------|---------|----------|-----------------------------------------
---------|---12bu----|--12--14b|--12bu----|------12--14b-r-b-14/12------12--14------
---------|-------14--|---------|------14--|--14---------------------14--------------
7--x--5--|-----------|---------|----------|-----------------------------------------
5-----3--|-----------|---------|----------|-----------------------------------------

Very Fast
14b15--|--14--12--------------12--------------------------|---------------------
-------|----------15--13--15------15--13--12--------------|----------15---------
-------|--------------------------------------15--13--12--|--14b-r-b-----14b-r--
-------|--------------------------------------------------|---------------------
-------|--------------------------------------------------|---------------------
-------|--------------------------------------------------|---------------------


----|---------------------------------------------------------------------------
----|---------------------------------------------------------------------------
12--|---------------------------------------------------------------------------
----|---------------------------------------------------------------------------
----|---------------------------------------------------------------------------
----|---------------------------------------------------------------------------

There are other bits,I've worked them out,but they are (for example,the
second solo) impossible to tab out on a computer.Sorry!
bu=bend up(blues curl)
b=bend(if followed by another note it means bend to that
note)
r=release the last bend.
--
************************************************************************
*Aaron Shaw: [email protected] *
*Aaron's Homepage: http://www.geocities.com/SunsetStrip/2502 *
*This World Ain't Big Enough For Two,and I Got My Sights On You-Extreme*
*Tottenham Hotspur for the Cup,Arsenal Scum for the Endsleigh League *
************************************************************************




Ваше мнение



Капча