-##
Money
by Extreme
tabbed by Scott Ettinger
Submitted by Ed Westberg ([email protected])
[email protected]------
-----------------------------------------------------------------------
-----------------------------------------------------------------------
-------7------------5-------------4---------5--4-----------------------
----------7------------5-------------5-------------5--3----------------
--5h7----------5h7----------5h7--------------------------5--3--5--3--0-

----------------------------------------------------
----------------------------------------------------
--------------^---------1/2-2-1---------------------
-------22-----4br-2------------2---2-4-2------------
2--2-4----4-2-------2-4----------4-------2-4--------
0-0-------------------------------------------------
^squeal the crap out of this note.
----------------------------------------------------
--------------------------2-2-0-----0--2-0----------
--------------^---------1/2-2-1-----1--2-1----------
-------22-----4br-2-------------2-4-----------------
---2-4----4-2-------2-4-----------------------------
0-0-------------------------------------------------
----------------------------------------------------
----------------------------------------------------
--------------^---------1/2-2-111-------------------
-------22-----4br-2---------------222-----2-4-2-----
---2-4----4-2-------2-4---------------444-------2-4-
0-0-------------------------------------------------

------------------------------------------------0---
------------------------------------------------0---
--------------^-------------------------------------
-------22-----4br-2------76--76--540-540---2--------
---2-4----4-2-------2-4----7---7---------24---------
0-0------------------------------------------0------
verse part goes in here... I haven't figured that out yet.
here is the chorus:
----0-----------------------------------------------
----0-----------------------------------------------
----------------2--x-2----------22------------------
----------------2--x-2------2-4----4-2--------------
-------------0--0--x-0---00-------------------------
0---------------------------------------------------
mo- ney, my per-so-nal sa- vi- or

----0-----------------------------------------------
----0------------------------6---4------------------
----------------------2------6---4------------------
----------------------2------4---2------------------
-------------------0--0-000-------------------------
0---------------------------------------------------
mo- ney, oh oh ma-ter-i-al lu-ust

----0-----------------------------------------------
----0-----------------------------------------------
----------------2--x-2----------22------------------
----------------2--x-2------2-4----4-2--------------
-------------0--0--x-0---00-------------------------
0---------------------------------------------------
mo- ney, life's only trea - sure




Ваше мнение



Капча