-##
Tab Key:
/ -- slide up
\ -- slide down
h -- hammer on
p -- pull off
x -- string mute
H -- artificial harmonic
(bend)- bend the note
EXTREME
Kid Ego
=======
Played down 1/2 step
E--------------------------|---------------------------|
B--------------------------|---------------------------|
G--2-2-2-2----2-2-2-2------|---------------------2-----|
D--2-2-2-2----2-2-2-2------|--2p0----------------2--2--|
A--0-0-0-0----0-0-0-0------|------2-1-0----------0--2--|
E--------------------------|------------0h3p0-3-----0--|
Come Down!
E---------------------------|---------------------------|
B------------------------3--|---------------------------|
G--------------------0---2--|---------------------2-----|
D--2p0---------------0--x0--|--2p0----------------2--2--|
A------2-1-0--------x---x---|------2-1-0----------0--2--|
E------------0h3p0--x3------|------------0h3p0-3-----0--|
H H H H
E---------------------------------|---------------------------|
B---------------------------------|---------------------------|
G---------------------------------|---------------------2-----|
D--2-0-------2-0-------2-0--------|--2-0----------------2--2--|
A------2-1-0-----2-1-0-----2-1-0--|------2-1-0----------0--2--|
E---------------------------------|------------0h3p0-3-----0--|
E-----------------------------|---------------------------|
B--------------------------3--|---------------------------|
G----------------------0---2--|---------------------2-----|
D--2p0-----------------0--x0--|--2p0----------------2--2--|
A------2-1-0----------x---x---|------2-1-0----------0--2--|
E------------0h3p0-3--x3------|------------0h3p0-3-----0--|
Verse: (Trem. bar & harmonics)
E---------------------------------|-------------0----|---------------------|
B---------------------------------|-------------0----|-----------x\--------|
G------------------------2-3-2-0--|------------------|-------x/--x\--------|
D--2-0-------------0-2-5----------|----------2-------|-------x/--x\--------|
A------2-1-0----------------------|----------2-------|-------x/------------|
E------------0h3p0----------------|--3(bend)-0-------|---------------------|
E--------|---------------|-----------|-----------|-----------|----------------|
B--------|------------3--|-----------|-----------|-----------|----------------|
G--------|---------0--2--|-----------|-----------|-----------|----------------|
D--2\----|---------0--0--|--2----2\--|--2----2\--|--2----2\--|--2----2--2--2--|
A--2\----|---------------|--2----2\--|--2----2\--|--2----2\--|--2----2--2--2--|
E--0-----|---------3-----|--0----0---|--0----0---|--0----0---|--0----0--0--0--|
I don't quite have this part right, (it sounds kinda muddled) but this is
*sorta* how it goes:
E----------------8/9---|
B----------------9/10--|
G--2------2------------| Play something like this for about three and 1/2
D--2------2------------| measures.
A--0--0-0-0--0-0-------|
E----------------------|
then:
E-----------------|-------------0--------------|-------------0--------------|
B-----------------|-------------0--------3--3--|-------------0--------3--3--|
G--------2-3-2-0--|----------------------2--2--|----------------------2--2--|
D--0-2-5----------|----------2-----------0--0--|----------2-----------0--0--|
A-----------------|----------2-----------------|----------2-----------------|
E-----------------|--3(bend)p0-----3p0-0-------|--3(bend)p0-----3p0-0-------|
Chorus:
E-------------0--------------|------------|---------------------|---------------
B-------------0--------3--3--|-------3----|---------------------|---------------
G----------------------2--2--|--0----2----|--2------------------|--2------------
D----------2-----------0--0--|--0----0----|--2----------2-------|--2----------2-
A----------2-----------------|------------|--0----------2-------|--0----------2-
E--3(bend)p0-----3p0-0-------|--3---------|------3--3-0-0--0-3--|------3--3-0-0-

E---------------------|------------------------|
B---------------------|------------------------|
G--2------------------|--2------------2-3-2-0--|
D--2----------2-------|--2------0-2-5----------|
A--0----------2-------|--0---------------------|
E------3--3-0-0--0-3--|------3-----------------|
Then repeat the verse.
This is the first part of the solo:
E------------------------------------|--------------------------------------|
B-----10-----10-----8-----7---8p7----|-----10-----10-----8---10---8h10p8----|
G--/7----7-7----7-7---7-7---7-----7--|--/7----7-7----7-7---7----7--------7--|
D------------------------------------|--------------------------------------|
A------------------------------------|--------------------------------------|
E------------------------------------|--------------------------------------|
E---------------------------------|------------------------------------|
B----10-----10-8---10---8h10p8----|----10-----8------------------------|
G-------7-7------7----7--------7--|--7----7-7---7-7-7------------------|
D---------------------------------|---------------------7-5------------|
A---------------------------------|-------------------------7-6-5------|
E---------------------------------|-------------------------------8-5--|




Ваше мнение



Капча