t. See http://www.olga.net/faq/ for more information. #
Date: Wed, 19 Apr 2000 05:12:48 -0400
From: "degory nicolas"
Subject: e/extreme/fair_weather_faith.tab
FAIR WEATHER FAITH
on Extreme's Waiting for the punchline
transcription by Fea (http://membres.tripod.fr/Fea)
% = rest; B = bass drum; S = snare drum.
0:03
|B B S B H B S B B S B B B S H |
1 e & e 2 e & e 3 e & e 4 e & e 1 e & e 2 e & e 3 e & e 4 e & e
|5---5-----------------------2---|----------------3---------------|
|5---5-------3-------1-------3---|----------------3---------------|
|6---6---%%--0---%%--2---%%--2---|----------------2---------------|
|7---7-------5-------3-------0---|----------------0---------------|
|7---7-------5-------3-----------|--------------------------------|
|--------------------------------|--------------------------------|
|B B S B H B S B B B S B B B S B |
1 e & e 2 e & e 3 e & e 4 e & e 1 e & e 2 e & e 3 e & e 4 e & e
|5---5-----------------------2---|--------------------------------|
|5---5-------3-------1-------3---|--------3-----3(let ring)-------|
|6---6---%%--0---%%--2---%%--2---|--------2---2-------------------|
|7---7-------5-------3-------0---|--------0-----------------------|
|7---7-------5-------3-----------|----------------3-------3p0-----|
|--------------------------------|----------------------------3p0-|
|B B S B H B S B B B S B B S H |
1 e & e 2 e & e 3 e & e 4 e & e 1 e & e 2 e & e 3 e & e 4 e & e
|5---5---------------------------|--------------10----------------|
|5---5-------3-------5-------7---|--------10--------------1010----|
|6---6---%%--0---%%--5---%%--7---|--xs9b----9b----9r----7-9-9-7-0-|
|7---7-------5-------5-------7---|------------------------------0-|
|7---7-------5-------3-------5---|--------------------------------|
|--------------------------------|--------------------------------|
|B B S B H B S B B S B B B S |
1 e & e 2 e & e 3 e & e 4 e & e 1 e & e 2 e & e 3 e & e 4 e & e
|5---5---------------------------|--------------------------------|
|5---5-------3-------1-------3---|--------------------------------|
|6---6---%%--0---%%--2---%%--2---|--------------------------------|
|7---7-------5-------3-------x---|--------------------------------|
|7---7-------5-------3-------2---|-let ring-----------------------|
|--------------------------------|--------------------------------|
|B B S S S S S S S |
1 e & e 2 e & e 3 e & e 4 e & e
|--------------------------------|
|--------------------------------|
|--------------------------------|
|--------------------------------|
|x-/slide up the neck------------|
|x-/-----------------------------|
===================================================================
0:26
|B S B B S B S B B S |
1 e & e 2 e & e 3 e & e 4 e & e 1 e & e 2 e & e 3 e & e 4 e & e
|--------------------------------|--------------------------------|
|--------------------------------|--------------------------------|
|----------------%---------------|----------------%---------------|
|--------------------------------|----------------------------9---|
|-------s10-------------s10----10|-------s10-------------s10------|
|0---0---------0---0-0-0---------|0---0---------0---0-0-0---------|
1 e & e 2 e & e 3 e & e 4 e & e 1 e & e 2 e & e 3 e & e 4 e & e
|--------------------------------|------------------------------3-|
|--------------------------------|----------------------------3---|
|----------------%---------------|----------------%---------4-----|
|--------------------------------|-----------------------s5-------|
|-------s10-------------s10----10|-------s10----------------------|
|0---0---------0---0-0-0---------|0---0---------0---0-0-0---------|
===================================================================
0:37
|B B S B B S B B S B B B S H |
1 e & e 2 e & e 3 e & e 4 e & e 1 e & e 2 e & e 3 e & e 4 e & e
|x-3---x-3---x-3---x-3-x-3-3-x-x-|3-3---x-3---x-3---x-3-3-3-x-4-4-|
|x-3---x-3---x-3---x-3-x-3-3-x-x-|3-3---x-3---x-3---x-3-3-3-x-3-3-|
|--------------------------------|--------------------------------|
|--------------------------------|--------------------------------|
|--------------------------------|--------------------------------|
|--------------------------------|--------------------------------|
1 e & e 2 e & e 3 e & e 4 e & e 1 e & e 2 e & e 3 e & e 4 e & e
|3-3---x-3---x-3---x-3-x-3-3-x-x-|3-3---x-0-0-0-0^0-0-0^0-0^0-0-x-|
|3-3---x-3---x-3---x-3-x-3-3-x-x-|3-3---x-8-8-8-7^7-7-7^7-6^6-6-x-|
|--------------------------------|--------7-7-7-6^6-6-6^6-5^5-5---|
|--------------------------------|--------------------------------|
|--------------------------------|--------------------------------|
|--------------------------------|--------------------------------|
1 e & e 2 e & e 3 e & e 4 e & e 1 e & e 2 e & e 3 e & e 4 e & e
|3-3---x-3---x-3---x-3-x-3-3-x-x-|3-3---x-3---x-3---x-3-3-3-x-4-4-|
|3-3---x-3---x-3---x-3-x-3-3-x-x-|3-3---x-3---x-3---x-3-3-3-x-3-3-|
|--------------------------------|--------------------------------|
|--------------------------------|--------------------------------|
|--------------------------------|--------------------------------|
|--------------------------------|--------------------------------|
1 e & e 2 e & e 3 e & e 4 e & e 1 e & e 2 e & e 3 e & e 4 e & e
|x-3---x-3---x-3---x-3-x-3-3-x-x-|3-3---x-3-3-x-3---x-3---x-3-3-s-|
|x-3---x-3---x-3---x-3-x-3-3-x-x-|3-3---x-3-3-x-3---x-3---x-3-3-s-|
|--------------------------------|----%---------------------------|
|--------------------------------|--------------------------------|
|--------------------------------|--------------------------------|
|--------------------------------|--------------------------------|
===================================================================
0:57
|B B S B B S B S ssS S S S S T T T T |
1 e & e 2 e & e 3 e & e 4 e & e 1 e & e 2 e & e 3 e & e 4 e & e
|--------------------------------|--------------------------------|
|--------------------------------|--------------------------------|
|--------------------------------|--------------------------------|
|--------------------------------|--------------------------------|
|--------------------------------|--------------------------------|
|5-----3---x-5-----3---x-5b5-3-0-|5-----5-3-%- silence |
|B B S B B S B S S S |
1 e & e 2 e & e 3 e & e 4 e & e 1 e & e 2 e & e 3 e & e 4 e & e
|--------------------------------|--------------------------------|
|--------------------------------|--------------------------------|
|--------------------------------|--------------6-------7---------|
|--------------------------------|--------------------------------|
|--------------------------------|--------------4-------5---------|
|5-----3---x-5-----3---x-5b5-3-0-|5-----5-3-x-x-----x-x-----x-x-x-|
|B B S B B S S S |
1 e & e 2 e & e 3 e & e 4 e & e
|--------------------------------|
|--------------------------------|
|--------------------------------|
|--------------------------------|
|--------------------------------|
|5-----3---x-5-----3---x-5b5-3-0-|
===================================================================
1:10
1 e & e 2 e & e 3 e & e 4 e & e 1 e & e 2 e & e 3 e & e 4 e & e
|----------------------------2---|----------------3-------2-------|
|5---5-------3-------1-------3---|----------------3-------3-------|
|6---6---%%--0---%%--2---%%--2---|----------------2-------2-------|
|7---7-------5-------3-------0---|----------------0-------0-------|
|7---7-------5-------3-----------|--------------------------------|
|--------------------------------|--------------------------------|
1 e & e 2 e & e 3 e & e 4 e & e 1 e & e 2 e & e 3 e & e 4 e & e
|----------------------------2---|--------------------------------|
|5---5-------3-------1-------3---|--------3-----3~----------------|
|6---6---%%--0---%%--2---%%--2---|--------2---2~------------------|
|7---7-------5-------3-------0---|--------0-----------------------|
|7---7-------5-------3-----------|----------------3-------3p0-----|
|--------------------------------|----------------------------3p0-|
1 e & e 2 e & e 3 e & e 4 e & e 1 e & e 2 e & e 3 e & e 4 e & e
|--------------------------------|--------------10----------------|
|5---5-------3-------5-------7---|--------10--------------1010----|
|6---6---%%--0---%%--5---%%--7---|----9b----9b----9b----7-9-9-7---|
|7---7-------5-------5-------7---|--------------------------------|
|7---7-------5-------3-------5---|--------------------------------|
|--------------------------------|------------------------------0-|
1 e & e 2 e & e 3 e & e 4 e & e 1 e & e 2 e & e 3 e & e 4 e & e
|--------------------------------|------------------17--x-16161616|
|5---5-------3-------1-----------|--------15----15x-15--x-15151515|
|6---6---%%--0---%%--2---%%------|----14----14--14x-14--x---------|
|7---7-------5-------3-----------|13----13----13------------------|
|7---7-------5-------3------s14--|--14----------------------------|
|--------------------------------|--------------------------------|
===================================================================
1:30
|B S B B S B S B B S |
1 e & e 2 e & e 3 e & e 4 e & e 1 e & e 2 e & e 3 e & e 4 e & e
|--------------------------------|--------------------------------|
|--------------------------------|--------------------------------|
|----------------%---------------|----------------%---------------|
|--------------------------------|----------------------------9---|
|-------s10-------------s10----10|-------s10-------------s10------|
|0---0---------0---0-0-0---------|0---0---------0---0-0-0---------|
|B B S B B B S |
1 e & e 2 e & e 3 e & e 4 e & e
|------------------------------------------------|
|------------------------------------------------|
|------------------------------6-9-6---8-118---9-|
|----9-129---111411--131613\-7-------9-------10--|
|xs10------12------14----------------------------|
|------------------------------------------------|
|B B S B B B S |
1 e & e 2 e & e 3 e & e 4 e & e
|------------128s7---9p7-----7s3~----------------|
|----------10------8-----8-8---------------------|
|119-----11--------------------------------------|
|----1112----------------------------------------|
|------------------------------------------------|
|------------------------------------/12-\-------|
===================================================================
1:40
1 e & e 2 e & e 3 e & e 4 e & e 1 e & e 2 e & e 3 e & e 4 e & e
|3---3---x-----------------------|--------------------------------|
|3---3---x-----------------------|--------------------------------|
|--------------------------------|--------------------------------|
|--------------------------x-----|----------------x-------------x-|
|--------------------x-|------------------------------x-|
|----------------------x-x----------silence --x-------------|
1 e & e 2 e & e 3 e & e 4 e & e 1 e & e 2 e & e 3 e & e 4 e & e
|--------------------------------|--------------------------------|
|--------------------------------|--------------------------------|
|--------------------------------|--------------------------------|
|--------------x---------------x-|--------------x-------------x-x-|
|------------------------------x-|--------------------------------|
---x---------------------------------x-x---x-------|
1 e & e 2 e & e 3 e & e 4 e & e 1 e & e 2 e & e 3 e & e 4 e & e
|--------------------------------|--------------------------------|
|--------------------------------|--------------------------------|
|--------------------------------|--------------------------------|
|--------------x-----------------|------------x-------------------|
|--------------------------------|--------------------------------|
---------x--x---3-----x-----------x-x---3-----x-|
1 e & e 2 e & e 3 e & e 4 e & e 1 e & e 2 e & e 3 e & e 4 e & e
|--------------------------------|------------------------2115----|
|--------------------------------|------------------------slide---|
|--------------------------------|--------------------------------|
|------------x-x-----------------|------------x-------------------|
|--------------------------------|------------------x\x/----------|
----------x-x---x---x-x-----------x\x/--------x\|
===================================================================
2:01
1 e & e 2 e & e 3 e & e 4 e & e 1 e & e 2 e & e 3 e & e 4 e & e
|--------------------------------|--------------------------------|
|--------------------------------|--------------------------------|
|--------------------------------|--------------------------------|
|--------------------------------|--------------------------------|
|--------------------------------|--------------------------------|
|5-----3---x-5-----3---x-5b5-3-0-|5-----3-x-x-x-x-x-x-x-x-x-x-x-x-|
1 e & e 2 e & e 3 e & e 4 e & e 1 e & e 2 e & e 3 e & e 4 e & e
|--------------------------------|--------------------------------|
|--------------------------------|--------------------------------|
|--------------------------------|--------------6-------7---------|
|--------------------------------|--------------------------------|
|--------------------------------|--------------4-------5---------|
|5-----3---x-5-----3-x---5b5-3-0-|5-----3-x-x-x-----x-x-----x-x-x-|
1 e & e 2 e & e 3 e & e 4 e & e
|--------------------------------|
|--------------------------------|
|--------------------------------|
|--------------------------------|
|--------------------------------|
|5-----3---x-5-----3-x---5b5-3-0-|
===================================================================
2:13
1 e & e 2 e & e 3 e & e 4 e & e 1 e & e 2 e & e 3 e & e 4 e & e
|----------------------------2---|--------2-------3-------3-------|
|5---5-------3-------1-------3---|----3-----------3-------3-------|
|6---6-------0-------2---%%--2---|----------------2---------------|
|7---7-------5-------3-------0---|----------------0-----------0---|
|7---7---0---5---0---3-----------|------------------------------0-|
|--------PM------PM--------------|----------------------------PM.-|
1 e & e 2 e & e 3 e & e 4 e & e 1 e & e 2 e & e 3 e & e 4 e & e
|----------------------------2---|--------------------------------|
|5---5-------3-------1-------3---|--------3-----3~----------------|
|6---6-------0-------2---%%--2---|--------2---2~------------------|
|7---7-------5-------3-------0---|--------0-----------------------|
|7---7---0---5---0---3-----------|----------------3-------3p0-----|
|--------PM------PM--------------|----------------------------3p0-|
1 e & e 2 e & e 3 e & e 4 e & e 1 e & e 2 e & e 3 e & e 4 e & e
|--------------------------------|--------------10----------------|
|5---5-------3-------5-------7---|--------10--------------1010----|
|6---6---x-x-0---x-x-5-----x-7---|----9b----9b----9b----7-9-9-7---|
|7---7---x-x-5---x-x-5-----x-7---|--------------------------------|
|7---7-------5-------3-------5---|--------------------------------|
|--------------------------------|------------------------------0-|
1 e & e 2 e & e 3 e & e 4 e & e
|--------------------------------|
|5---5-------3-------1-------3---|
|6---6-------0-------2-------2-%-|
|7---7-------5-------3-------x---|
|7---7---0---5----0--3---0---2---|
|--------PM-------PM-----PM------|
===================================================================
2:32
| B S B S B B S B B S B B |
1 e & e 2 e & e 3 e & e 4 e & e 1 e & e 2 e & e 3 e & e 4 e & e
|--------------------------------|--------------------------------|
|--------------3-----3-----5-----|--------------------------------|
|--------------4-----4-----6-----|--------------------------------|
|--5-7-7b7r5---5-----5-----7-----|--------------------------------|
|7-------------5-----5-----7-----|------------\-depr. bar-/-------|
|------------0-------------------|--------------------------------|
|S S S S S S S C S C S C B B S B B B S B |
1 e & e 2 e & e 3 e & e 4 e & e 1 e & e 2 e & e 3 e & e 4 e & e
|--------------------------------|--------3~----------------------|
|--------------------------------|--------3~----------------------|
|--------------------------------|--------------------------------|
|--5-7-7b7r5---7p5---------------|------------------x-/-12----\---|
|7-----------------7-5-----------|--------------------------------|
|------------0-----------7-0-----|----0---------------------------|
|S S S S S S S B S C S C B S B B B S B |
1 e & e 2 e & e 3 e & e 4 e & e 1 e & e 2 e & e 3 e & e 4 e & e
|--------------------------------|------------------5 9p5-----5---|
|--------------3-----3-----5-----|---------------5h8 5---8 5 8-8b-|
|--------------4-----4-----6-----|-------------s6-----------------|
|--5-7-7b7r5---5-----5-\db-7-----|-/------------|-2x sextuplets-|-|
|7-------------5-----5-----7-----|--------------------------------|
|------------0-------------------|--------------------------------|
|S S S S S S S B S B S C B S B B B S B |
1 e & e 2 e & e 3 e & e 4 e & e 1 e & e 2 e & e 3 e & e 4 e & e
|------b-r-----------------------|--------------------------------|
|--8-1010108---------------------|--------------------------------|
|9-----------9-------------------|--------------------------------|
|--------------------------------|--------------0(2)tr-/5-4-------|
|--------------7p5---5---7-------|--------------------------7-5-7-|
|------------------7-------2-----|---\bar-------------------------|
|S S S S S S S B S S C S S C B S B B B S B |
1 e & e 2 e & e 3 e & e 4 e & e 1 e & e 2 e & e 3 e & e 4 e & e
|--------------------------------|--------------9---12--9---12--14|
|--------------------------------|--------------------------------|
|4-------2-----------4-----6-----|------------I don't know--------|
|----------------5---5-\dp-7-----|-/------------------------------|
|--7---5---5---4---4-5-----7-----|--------------------------------|
|--------------------------------|--------------------------------|
|S S S S S S S B S B S B S B |
1 e & e 2 e & e 3 e & e 4 e & e 1 e & e 2 e & e 3 e & e 4 e & e
|--------------------------------|--------------------------------|
|--------------------------------|--------------------------------|
|--------------------------------|--------------------------------|
|--5-7-7b7r5---7p5---------------|----5-----------------7---------|
|7-----------------7-5---7-6---7-|4-----5---7-6---7-4-----5---7-6-|
|------------0-------------------|--------------------------------|
| S C S B S B S B |
1 e & e 2 e & e 3 e & e 4 e & e 1 e & e 2 e & e 3 e & e 4 e & e
|--------------------------------|--------------------------------|
|--------------------------------|--------------------------------|
|--------------------------------|--------------------------------|
|--5-7-7b7r5---7p5---------------|----5-----------------7---------|
|7-----------------7-5---7-6---7-|4-----5---7-6---7-4-----5---7-6-|
|------------0-------------------|--------------------------------|
| S C B S B B S B B S |
1 e & e 2 e & e 3 e & e 4 e & e 1 e & e 2 e & e 3 e & e 4 e & e
|--------------------------------|--------------------------------|
|--------------------------------|--------------------------------|
|--------------------------------|--------------------------------|
|--5-7-7b7r5---7p5---------------|----5-----------------7---------|
|7-----------------7-5---7-6---7-|4-----5---7-6---7-4-----5---7-6-|
|------------0-------------------|--------------------------------|
| S B B C B B S B S |
1 e & e 2 e & e 3 e & e 4 e & e 1 e & e 2 e & e 3 e & e 4 e & e
|--------------------------------|----3---3-------3---3-------3---|
|--------------------------------|----3---3-------3---3-------3---|
|--------------------------------|------%-----------%-----------%-|
|--5-7-7b7r5---7p5---------------|--------------------------------|
|7-----------7-----7-5---7-------|--------------------------------|
|--------------------------0-----|0-0---------0-0---------0-0-----|
PM. PM. etc
|B S B S B S B S |
1 e & e 2 e & e 3 e & e 4 e & e 1 e & e 2 e & e 3 e & e 4 e & e
|3-------3---3-------3---3-------|3---3-------3---3-------3---3---|
|3-------3---3-------3---3-------|3---3-------3---3-------3---3---|
|----------%-----------%---------|--%-----------%-----------%-----|
|--------------------------------|--------------------------------|
|--------------triplet-----------|--------------------------------|
|----0-0---------000---------0-0-|--------0-0---------0-0---------|
|B S S S S S |
1 e & e 2 e & e 3 e & e 4 e & e
|------3-x-3-x-3-----2-------1---|
|------3-x-3-x-3-----2-------1---|
|------------------------------%-|
|--------------------------------|
|--------------------------------|
|0-0-0-------------0-----0-0-----|
===================================================================
3:27
1 e & e 2 e & e 3 e & e 4 e & e 1 e & e 2 e & e 3 e & e 4 e & e
|----------------------------2---|--------2-------3-------3-------|
|------------3-------1-------3---|----3-----------3-------3-------|
|%%--%%------0-------2---%%--2---|----------------2---------------|
|------------5-------3-------0---|----------------0-----------0---|
|--------0---5---0---3-----------|------------------------------0-|
|--------PM------PM--------------|----------------------------PM.-|
1 e & e 2 e & e 3 e & e 4 e & e 1 e & e 2 e & e 3 e & e 4 e & e
|----------------------------2---|--------------------------------|
|5---5-------3-------1-------3---|--------3-----3~----------------|
|6---6-------0-------2-------2---|--------2---2~------------------|
|7---7-------5-------3-------0---|--------0-----------------------|
|7---7---0-0-5---0-0-3---0-------|----------------3-------3p0-----|
|--------PM.-----PM.-----PM------|----------------------------3p0-|
1 e & e 2 e & e 3 e & e 4 e & e 1 e & e 2 e & e 3 e & e 4 e & e
|--------------------------------|--------------10----------------|
|5---5-------3-------5-------7---|--------10--------------1010----|
|6---6---x-x-0---x-x-5-----x-7---|----9b----9b----9b----7-9-9-7---|
|7---7---x-x-5---x-x-5-----x-7---|--------------------------------|
|7---7-------5-------3-------5---|--------------------------------|
|--------------------------------|------------------------------0-|
1 e & e 2 e & e 3 e & e 4 e & e 1 e & e 2 e & e 3 e & e 4 e & e
|--------------------------------|--------------------------------|
|5---5-------3-------1-------3---|--------------------------------|
|6---6-------0-------2-------2---|--------------------------------|
|7---7-------5-------3-------x---|--------------------------------|
|7---7---0-0-5---0-0-3---0---2---|--------------------------------|
|--------PM.-----PM.-----PM------|--------------------------------|
===================================================================
3:49
1 e & e 2 e & e 3 e & e 4 e & e 1 e & e 2 e & e 3 e & e 4 e & e
|--------------------------------|--------------------------------|
|--------------------------------|--------------------------------|
|--------------------------------|-----------------------------|
|--------------------------------|--------------------------------|
|--------------------------------|--------------------------------|
|5-------3---x-5-----3-x-5b5-3-0-|5-----3---x-x-x-xxx-x-x-xxx-x-x-|
1 e & e 2 e & e 3 e & e 4 e & e 1 e & e 2 e & e 3 e & e 4 e & e
|--------------------------------|--------------------------------|
|--------------------------------|--------x-x---------------------|
|--------------------------------|--------x-x-----x-6-----x-7-----|
|--------------------------------|----------------x-x-----x-x-----|
|--------------------------------|----------------x-4-----x-5-----|
|5-------3---x-5-----3-x-5b5-3-0-|5-----3-----x-x-----x-x-----x-x-|
1 e & e 2 e & e 3 e & e 4 e & e 1 e & e 2 e & e 3 e & e 4 e & e
|--------------------------------|--------------------------------|
|--------------------------------|--------------------------------|
|--------------------------------|--------------------------------|
|--------------------------------|--------------------------------|
|--------------------------------|--x x x x x x ----------------|
|5-------3---x-5-----3-x-5b5-3-0-|5-| 2 triplets |------------x-x-|
1 e & e 2 e & e 3 e & e 4 e & e 1 e & e 2 e & e 3 e & e 4 e & e
|--------------------------------|--------------------------------|
|--------------------------------|--------------------------------|
|--------------------------------|--------------------------------|
|--------------------------------|--------x /-----12~-----\-------|
|--------------------------------|--------------------------------|
|5-------3---x-5-----3-x-5b5-3-0-|5---5-3-------------------------|
===================================================================
4:09
1 e & e 2 e & e 3 e & e 4 e & e
|20--20--20--20------------------20--20--20--20------------------|
|19--19--19--19------x---x---x---19--19--19--19------x---x---x---|
|----------------%---x---x---x-------------------%---x---x---x---|
|----------------------------------------------------------------|
|----------------------------------------------------------------|
|----------------------------------------------------------------|
1 e & e 2 e & e 3 e & e 4 e & e
|20--20--20--20------------------------------------------x---x---|
|19--19--19--19------x-----------x---x-------------------x---x---|
|----------------%---x-------%---x---x-------%-------%-----------|
|----------------------------------------------------|
|----------------------------------------------------------------|
|----------------------------------------------------------------|
1 e & e 2 e & e 3 e & e 4 e & e
|20--20--20--20------------------20--20--20--20------------------|
|19--19--19--19------x---x---x---19--19--19--19------x---x---x---|
|----------------%---x---x---x-------------------%---x---x---x---|
|----------------------------------------------------------------|
|----------------------------------------------------------------|
|----------------------------------------------------------------|
1 e & e 2 e & e 3 e & e 4 e & e
|20--20--20--20--------------------------------------------------|
|19--19--19--19------x---x---x---x-x-x---x-------x-x-x---x-------|
|----------------%---x---x---x---x-x-x---x---%---x-x-x---x---%---|
|----------------------------------------------------------------|
|----------------------------------------------------------------|
|----------------------------------------------------------------|
1 e & e 2 e & e 3 e & e 4 e & e
|20--20--20--20------------------20--20--20--20------------------|
|19--19--19--19--------------x---19--19--19--19------x---x---x---|
|----------------%---%---%---x-------------------%---x---x---x---|
|----------------------------------------------------------------|
|----------------------------------------------------------------|
|----------------------------------------------------------------|
1 e & e 2 e & e 3 e & e 4 e & e
|20--20--20--20------------------------------------------x---x---|
|19--19--19--19------x-----------x---x-------------------x---x---|
|----------------%---x-------%---x---x-------%-------%-----------|
|----------------------------------------------------|
|----------------------------------------------------------------|
|----------------------------------------------------------------|
1 e & e 2 e & e 3 e & e 4 e & e
|20--20--20--20------------------20--20--20--20------------------|
|19--19--19--19------x---x---x---19--19--19--19------x---x---x---|
|----------------%---x---x---x-------------------%---x---x---x---|
|----------------------------------------------------------------|
|----------------------------------------------------------------|
|----------------------------------------------------------------|
1 e & e 2 e & e 3 e & e 4 e & e
|20--20--20--20--------------------------0-----------------------|
|19--19--19--19------x---x---------------0-----------------------|
|----------------%---x---x---------------------------------------|
|----------------------------------------------------------------|
|------------------------------------12\-------------|
|----------------------------------------------------------------|
===================================================================
4:30
1 e & e 2 e & e 3 e & e 4 e & e 1 e & e 2 e & e 3 e & e 4 e & e
[5-5-5-5---x-5---x-5---x-5s7-7-7-|5-x-5---x-5---x-x---x-x-x-x-----]
[5-5-5-5---x-5---x-5---x-5s7-7-7-|5-x-5---x-5---x-x---x-x-x-x-----]




Ваше мнение



Капча