The Exploited - System fucked up
from Beat the bastards, 1996
[Riff 1]
E|-----------------------|
B|-----------------------|
G|-----------------------|
D|-2-2-2-2-2-2-2-2-2-2-3-3--2-2-2-2-2-2-2-2-2-5-4-3------|
A|-2-2-2-2-2-2-2-2-2-2-3-3--2-2-2-2-2-2-2-2-2-3-2-1------|
E|-0-0-0-0-0-0-0-0-0-0-1-1--0-0-0-0-0-0-0-0-0------------|
[Riff 2]
E|-------------------------------|
B|-------------------------------|
G|-------------------------------|
D|-4-4-4-4-4-4-4-4-4-4--5-5------|
A|-4-4-4-4-4-4-4-4-4-4--5-5------|
E|-2-2-2-2-2-2-2-2-2-2--3-3------|
[End]
E|--------------------|
B|--------------------|
G|--------------------|
D|-2-2-2-2-2-2-3-3----|
A|-2-2-2-2-2-2-3-3----|
E|-0-0-0-0-0-0-1-1----|
[Riff 1]
6 arrests and nobody cares
16 years later the people prepare
the verdict returned set them free
the dirty pig bastards did the same to me
[Riff 2]
cover up, cover up,
corruption corruption,
the system's fucked up
[Riff 1]
pigs gain promotions they do all the time
hand shakes retirement their sentence for the crime
their crime should be the same as mine
they should do the same fucking time
[Riff 2]
cover up, cover up,
corruption corruption,
the system's fucked up
[Riff 1]
people locked up all the time for a crime they didn't do
a cover up what is new corruption you've been screwed
[Riff 2]
cover up, cover up,
corruption corruption,
the system's fucked up
[Riff 1]
pigs gain promotions they do all the time
hand shakes retirement their sentence for the crime
their crime should be the same as mine
they should do the same fucking time
[Riff 2]
cover up, cover up,
corruption corruption,
the system's fucked up
[End]


Ваше мнение



Капча