SPG
Intro/verse:
A B C B G D
e----------------------------------------------|
B----------------------------------------------|
G----------------------------------------------|
D--7-7-7-7-7-9-10-9--5-5-5-5--12-12-12--10-10--|
A--7-7-7-7-7-9-10-9--5-5-5-5--12-12-12--10-10--|
E--5-5-5-5-5-7-8--7--3-3-3-3--10-10-10--8---8--|
Chorus:
D G D G A
e-------------------------------------|
B-------------------------------------|
G-------------------------------------|
D--12--5-5-5-5--7-7-7-7-7-7-7-7-------|
A--12--5-5-5-5--7-7-7-7-7-7-7-7-------|
E--10--3-3-3-3--5-5-5-5-5-5-5-5-------|




Ваше мнение



Капча