[Riff 1]

E|------------------------|------------------------|
B|------------------------|------------------------|
G|-9-9-109-9-109109-10-12-|-9-9-109-9-109109-12-10-|
D|-9-9-109-9-109109-10-12-|-9-9-109-9-109109-12-10-|
A|-7-7-8 7-7-8 78 7-8--10-|-7-7-8 7-7-8 78 7-10-8--|
E|------------------------|------------------------|

[Riff 2]

E|---------------|
B|---------------|
G|-9--11--12--14-|
D|-9--11--12--14-|
A|-7--9---10--12-|
E|---------------|

[Riff 3]

E|-------------------|-------------------|
B|-------------------|-------------------|
G|-------------------|-------------------|
D|-3-3-43-3-4343-4-6-|-3-3-43-3-4343-4-6-|
A|-3-3-43-3-4343-4-6-|-3-3-43-3-4343-4-6-|
E|-1-1-21-1-2121-2-4-|-1-1-21-1-2121-2-4-|

[Riff 4] (Bass)

G|-----------------|
D|-----------------|
A|-----------------|
E|-0--3-5-0--5-3-0-|

[Riff 1]
Police lie on oath
It happens all the time
15 years for the Guildford Four
Innocent people send them off to jail
You could be next
Can't trust the police at all
[Riff 2]
Can't trust the police at all
Can't trust the police at all
Can't trust the police at all
[Riff 1]
Police shit
Police shit
Walking down the High Street
With a friend of mine
Got stopped by the police
They asked us where we're from
I wouldn't tell him
Told him to go and get stuffed
He radioed for back up
Then they locked us up
[Riff 2]
Can't trust the police at all
Can't trust the police at all
[Riff 3]
Police shit
Police shit
Police shit
Police shit
[Riff 1]
They lie in court
It happens all the time 15 years for the Guildford Four
Innocent people send thern off to jail
Can't trust the police
[Riff 2]
Can't trust the police at all
Can't trust the police at all
Can't trust the police at all
[Riff 3]
Police shit
Police shit
Police shit
Police shit
[Riff 4]
Lying bastards police shit
Lying bastards police shit
Lying bastards police shit
Lying bastards
[Riff 1]
Walking down the High Street
With a friend of mine
Stopped by the police
Asked us where we're from
I wouldn't tell him
Told him to go and get stuffed
He called for back up
Can't trust the police at all
[Riff 2]
Can't trust the police at all
Can't trust the police at all
[Riff 1]
Police shit
Police shit
Police shit
Police shit
Police shit


Ваше мнение



Капча