Intro:

E|------------------|
B|------------------|
G|------------------|
D|-676--676--676-6--|
A|-676--676--676-6--|
E|-454--454--454-4--|

Main riff:

E|--------------|
B|--------------|
G|--------------|
D|-6x-7-7-9-7-6-|
A|-6x-7-7-9-7-6-|
E|-4x-5-5-7-5-4-|

Chorus:

E|---------3---------|
B|---------t---------|
G|---------i---------|
D|-4--7-6--m--4--6-7-|
A|-4--7-6--e--4--6-7-|
E|-2--5-4--s--2--4-5-|




Ваше мнение



Капча