The Exploited
Mucky Pop


Intro

-----------------------------------------------------------------------------------------
---------------------------------------------------------------------55555555-----
-----------------------------------------------33333333----------------------------
--55555555--------33333333--------------------------------------------------

----------------------------------------------------------------------------
----------------------------------------------------------------------5----
------------------------------------------------33333333----------------
--55555555--------33333333---------------------------------------

Chorus

-------------------------------------------------------------------------------------
------------------------------------------------------------------55555555-----
---------------------------------------------3--33333---------------------------
--5--55555---------3--33333-------------------------------------------------

------------------------------------------------------------------------
--------------------------------------------------------------------5---
----------------------------------------------3--33333--------------
--5--55555---------3--33333-------------------------------------

Verse

--------------------------------------------
----------------------------------5-------------
-------------------------3----------------------
----5---------3--------------------------------

Guitar Solo

-------------------------------------------------------------------------------
------------------------------------------------------------55555555-----
----------------------------------------3--33333--------------------------
--5--55555------3--33333---------------------------------------------

--------------------------------------------------------------------------------
-------------------------------------------------------------55555555----
----------------------------------------3--33333-------------------------
--5--55555------3--33333---------------------------------------------

------------------------------------------------------------------
-----------------------------------------------------------5------
---------------------------------------3--33333---------------
--5--55555-----3--33333-----------------------------------

Final Chorus

---------------------------------------------------------------------------
---------------------------------------------------------55555555---- x3
-------------------------------------3--33333-------------------------- /
--5--55555------3--33333----------------------------------------- /


------------------------------------------------------------------
--------------------------------------------------------5-------
-------------------------------------3--33333---------------
--5--55555------3--33333-------------------------------

Tabbed by Mat Burger




Ваше мнение



Капча