JIMMY BOYLE - Exploited

Just the chords, you figure out the rhythm
g-----------------------------5-------------------------------------
d-8--5----8--5----8--5-----3--5-------------------------------------
a-8--5----8--5----8--5-----3--3-------------------------------------
e-6--3----6--3----6--3-----1----------------------------------------

Chorus, this is probably terribly wrong but it's what I got
g---12--------------------------------------------------------------
d---12------7-------------------------------------------------------
a---10------7-------------------------------------------------------
e-----------5-------------------------------------------------------

If anybody can, please correct me on the chorus part.
[email protected]




Ваше мнение



Капча