Main Riff:

E|-----------------| |-----------------------------|
B|-----------------| |-----------------------------|
G|-------------2-4-| X2 |-------------2-4-5-5-5-5-5-5-|
D|-4-4-4-4-4-4-2-4-| |-4-4-4-4-4-4-2-4-5-5-5-5-5-5-|
A|-4-4-4-4-4-4-0-2-| |-4-4-4-4-4-4-0-2-3-3-3-3-3-3-|
E|-2-2-2-2-2-2-----| |-2-2-2-2-2-2-----------------|

Chorus:

E|------------------------|
B|------------------------|
G|--------8-7-7-----------|
D|-5-4-4--8-7-7-8-7-7-5-4-|
A|-5-4-4--6-5-5-8-7-7-5-4-|
E|-3-2-2--------6-5-5-3-2-|

Ending:

E|---------------|
B|---------------|
G|---------------|
D|-8-8-8-7-7-5-4-|
A|-8-8-8-7-7-5-4-|
E|-6-6-6-5-5-3-2-|




Ваше мнение



Капча