Verse:

E|---------------|
B|---------------|
G|---------6-5-3-|
D|-5-5-5-5-6-5-3-|
A|-5-5-5-5-4-3-1-|
E|-3-3-3-3-------|

Chorus:

E|-----------------------------------------|
B|-----------------------------------------|
G|-------------3-3-3-3-3-3-------------5-5-|
D|-5-5-5-5-5-5-3-3-3-3-3-3-3-3-3-3-3-3-5-5-|
A|-5-5-5-5-5-5-1-1-1-1-1-1-3-3-3-3-3-3-3-3-|
E|-3-3-3-3-3-3-------------1-1-1-1-1-1-----|




Ваше мнение



Капча