The Exploited - Dead cities
[Intro]
E|--------|
B|--------|
G|--------|
D|-6...---|
A|-6...---|
E|-4...---|
[Riff 1]
E|---------------------------------|
B|---------------------------------|
G|-------------------------6-6-6-6-|
D|-6-6-6-6-6-6-6-6-4-4-4-4-6-6-6-6-|
A|-6-6-6-6-6-6-6-6-4-4-4-4-4-4-4-4-|
E|-4-4-4-4-4-4-4-4-2-2-2-2---------|
[Riff 2]
E|---------------------------------|
B|---------------------------------|
G|-----------------6-6-6-6-5-4-3---|
D|-6-6-6-6-6-6-6-6-6-6-6-6-5-4-3---|
A|-6-6-6-6-6-6-6-6-4-4-4-4-3-2-1---|
E|-4-4-4-4-4-4-4-4-----------------|
[Bridge]
E|--------------------------------->
B|--------------------------------->
G|-6-6-6-6-5-5-5-5-4-4-4-4--------->
D|-6-6-6-6-5-5-5-5-4-4-4-4-4-4-4-4->
A|-4-4-4-4-3-3-3-3-2-2-2-2-4-4-4-4->
E|-------------------------2-2-2-2->
E|-------------------------------------|
B|-------------------------3-3-3-3-3-3-|
G|-6-6-6-6-5-5-5-5-4-4-4-4-3-3-3-3-3-3-|
D|-6-6-6-6-5-5-5-5-4-4-4-4-3-3-3-3-3-3-|
A|-4-4-4-4-3-3-3-3-2-2-2-2-1-1-1-1-1-1-|
E|-------------------------------------|
[Intro]
Dead cities!
[Riff 1]
Im filed up with aggression
Want to smash your television
Saturday night you watch TV
Saturday night does nothing for me
[Riff 2]
Dead cities dead cities
Dead cities dead cities
[Riff 1]
See the man in the electric chair
They beat him up and shave his hair
There is no future to behold
In the city of dead you'll be there
[Riff 2]
Dead cities dead cities
Dead cities dead cities
[Bridge]
[Riff 1]
Im getting wasted in this city
Those council houses are getting me down
Go up town see whos there
Theres nothing to do its getting me down
[Riff 2]
Dead cities dead cities
Dead cities dead cities
[Riff 1]
Snarling and gobbing and falling around
I really enjoy the freedom ive found
My mates besides me lying on the ground
His ears are bursting with the volume of sound
[Riff 2]
Dead cities dead cities
Dead cities dead cities
[Riff 2]
Dead cities x16




Ваше мнение



Капча