CRASHED OUT - the Exploited
By: Punk Rock Bob ( [email protected] )
INTRO (the strumming pattern is wierd...listen to the song)
e|---------------------------------------------------------------------------|
B|---------------------------------------------------------------------------|
G|--5-5-5---5-5-5------------------------------------------------------------|
D|--5-5-5---5-5-5------------------------------------------------------------|
A|--3-3-3---3-3-3------------------------------------------------------------|
E|---------------------------------------------------------------------------|
VERSE
e|---------------------------------------------------------------------------|
B|---------------------------------------------------------------------------|
G|--5-5-5-5--7-7-8-10--------------------------------------------------------|
D|--5-5-5-5--7-7-8-10--------------------------------------------------------|
A|--3-3-3-3--5-5-6-8---------------------------------------------------------|
E|---------------------------------------------------------------------------|
CHORUS (let it ring out)
e|---------------------------------------------------------------------------|
B|---------------------------------------------------------------------------|
G|---------------------------------------------------------------------------|
D|--12-12--------------------------------------------------------------------|
A|--10-10--------------------------------------------------------------------|
E|---------------------------------------------------------------------------|




Ваше мнение



Капча