CLASS WARS - the Exploited

By: Punk Rock Bob ( [email protected] )

VERSE
e|---------------------------------------------------------------------------|
B|---------------------------------------------------------------------------|
G|--7-7-7-7-7-7-7-7----------------------------------------------------------|
D|--7-7-7-7-7-7-7-7-5-5-5-5-3-3-3-3------------------------------------------|
A|--5-5-5-5-5-5-5-5-5-5-5-5-3-3-3-3------------------------------------------|
E|------------------3-3-3-3-1-1-1-1------------------------------------------|

CHORUS (let it ring)
e|---------------------------------------------------------------------------|
B|---------------------------------------------------------------------------|
G|---------------------------------------------------------------------------|
D|--9-9----------------------------------------------------------------------|
A|--7-7----------------------------------------------------------------------|
E|---------------------------------------------------------------------------|




Ваше мнение



Капча