Verse:
D/E D/E D/E G Gb F F
E |--------------------------------------|
B |--------------------------------------|
G |--7/9-9--7/9-9--7/9-9--12-11--10--10--|
D |--7/9-9--7/9-9--7/9-9--12-11--10--10--|
A |--5/7-7--5/7-7--5/7-7--10-9---8---8---|
E |--------------------------------------|
Chorus:
B C# A
E |--------------------------------------|
B |--------------------------------------|
G |--4-4-4-4-4-4-4-4-6-6-6-6-------------|
D |--4-4-4-4-4-4-4-4-6-6-6-6-7-----------|
A |--2-2-2-2-2-2-2-2-4-4-4-4-7-----------|
E |--------------------------5-----------|




Ваше мнение



Капча