The Exploited - Blown To Bits

Turn on your overdrive

Verse 1
|-----------------------------------------|
|-----------------------------------------|
|-----------------------------------------|
|-9-9-9-9-11-11-11-11-9-9-9-9-12-12-12-12-|
|-7-7-7-7--9--9--9--9-7-7-7-7-10-10-10-10-|
|-----------------------------------------| 8 Times

Chorus (First Time Through)
|-----------------------------------|
|-----------------------------------|
|-----------------------------------|
|-----------------------------------|
|-9-9-9-9-9-9-9-9-10-10-10-10-7-5-4-|
|-7-7-7-7-7-7-7-7--9--9--9--9-5-3-2-| 2 Times

Verse 2/3
|-----------------------------------------|
|-----------------------------------------|
|-----------------------------------------|
|-9-9-9-9-11-11-11-11-9-9-9-9-12-12-12-12-|
|-7-7-7-7--9--9--9--9-7-7-7-7-10-10-10-10-|
|-----------------------------------------| 6 Times

Chorus
|------------------------------------------------------------------------|
|------------------------------------------------------------------------|
|------------------------------------------------------------------------|
|------------------------------------------------------------------------|
|-9-9-9-9-9-9-9-9-10-10-10-10-7-5-4-9-9-9-9-9-9-9-9-10-10-10-10-7-5-4-15-|
|-7-7-7-7-7-7-7-7--9--9--9--9-5-3-2-7-7-7-7-7-7-7-7--9--9--9--9-5-3-2-13-|

Wait a little bit, till after the drums come in on the snare.

Verse 2/3
|-----------------------------------------|
|-----------------------------------------|
|-----------------------------------------|
|-9-9-9-9-11-11-11-11-9-9-9-9-12-12-12-12-|
|-7-7-7-7--9--9--9--9-7-7-7-7-10-10-10-10-|
|-----------------------------------------| 6 Times

Chorus
|------------------------------------------------------------------------|
|------------------------------------------------------------------------|
|------------------------------------------------------------------------|
|------------------------------------------------------------------------|
|-9-9-9-9-9-9-9-9-10-10-10-10-7-5-4-9-9-9-9-9-9-9-9-10-10-10-10-7-5-4-15-|
|-7-7-7-7-7-7-7-7--9--9--9--9-5-3-2-7-7-7-7-7-7-7-7--9--9--9--9-5-3-2-13-|




Ваше мнение



Капча