Song-Beat the Bustards
Band-the Exploited
Album-Beat the Bastards
Tabed by Kyle From Incantation([email protected])

Drop D tunning
INTRO
E--------------------------------------------------------
B--------------------------------------------------------
G-2-2-2-2-2-2-2-2-2-2-2-2-2-2-2-5-5-5-5-5-5-5-7-7-8-8-7-7
D-2-2-2-2-2-2-2-2-2-2-2-2-2-2-2-5-5-5-5-5-5-5-7-7-8-8-7-7
A-0-0-0-0-0-0-0-0-0-0-0-0-0-0-0-3-3-3-3-3-3-3-5-5-6-6-5-5
D--------------------------------------------------------
VERSE
E----------------------------------------------------------
B----------------------------------------------------------
G-2--2-2-2-2-2-2-2-2-2-2-2-2-2-2-5-5-5-5-5-5-5-7-7-8-8-7-7-
D-2--2-2-2-2-2-2-2-2-2-2-2-2-2-2-5-5-5-5-5-5-5-7-7-8-8-7-7-
A-0--0-0-0-0-0-0-0-0-0-0-0-0-0-0-3-3-3-3-3-3-3-5-5-6-6-5-5-
D----------------------------------------------------------
PM..........................

CHORUS
E-----------------------------------------------------------
B-----------------------------------------------------------
G-----------------------------2--2-2-2-2-2--2--2-2-2-2-2----
D-1--1-1-1-1-1--0--0-0-0-0-0--2--2-2-2-2-2--2--2-2-2-2-2----
A-1--1-1-1-1-1--0--0-0-0-0-0--0--0-0-0-0-0--0--0-0-0-0-0----
D-1--1-1-1-1-1--0--0-0-0-0-0--------------------------------
PM......... PM....... PM...... PM.......
Beat the Bastard Beat'em Now...

I think That's All .It's Rather Easy To Play


Ваше мнение



Капча