ATTACK - the Exploited

By: Punk Rock Bob ( [email protected] )

VERSE (just palm mute it a bunch of times)
e|---------------------------------------------------------------------------|
B|---------------------------------------------------------------------------|
G|---------------------------------------------------------------------------|
D|--7------------------------------------------------------------------------|
A|--7------------------------------------------------------------------------|
E|--5------------------------------------------------------------------------|

CHORUS
e|---------------------------------------------------------------------------|
B|---------------------------------------------------------------------------|
G|------------------11-11-11-11-11-11-11-11----------------------------------|
D|--9-9-9-9-9-9-9-9-11-11-11-11-11-11-11-11----------------------------------|
A|--9-9-9-9-9-9-9-9-9--9--9--9--9--9--9--9-----------------------------------|
E|--7-7-7-7-7-7-7-7----------------------------------------------------------|




Ваше мнение



Капча