ADDICTION - the Exploited
By: Punk Rock Bob ( [email protected] )
VERSE
e|---------------------------------------------------------------------------|
B|---------------------------------------------------------------------------|
G|---------------------------4-4-2-------------------------------------------|
D|--4-4-4-4-4-4-4-4-4-4-4-4--4-4-2-5-----------------------------------------|
A|--4-4-4-4-4-4-4-4-4-4-4-4--2-2-0-5-----------------------------------------|
E|--2-2-2-2-2-2-2-2-2-2-2-2--------3-----------------------------------------|
*******palm mute*******
CHORUS
e|---------------------------------------------------------------------------|
B|---------------------------------------------------------------------------|
G|--2-2-2-2-3-3-3-3-4-4-4-4-5------------------------------------------------|
D|--2-2-2-2-3-3-3-3-4-4-4-4-5------------------------------------------------|
A|--0-0-0-0-1-1-1-1-2-2-2-2-3------------------------------------------------|
E|---------------------------------------------------------------------------|




Ваше мнение



Капча