Main Riff:

E|-------------|
B|-------------|
G|-------5-6-3-|
D|-5-5-5-5-6-3-|
A|-5-5-5-3-4-1-|
E|-3-3-3-------|

Chorus:

E|----------------|
B|----------------|
G|-8----6-5-56565-|
D|-8--5-6-5-56565-|
A|-6--5-4-3-34343-|
E|----3-----------|




Ваше мнение



Капча