Author/Artist: Exodus
Title: Till Death do us part
Album: Pleasures of the Flesh
Transcribed by: Dan Commaroto
Email: [email protected]

Any help with the solos in Exodus' songs would be greatly appreciated.
The tuning in this song is a quarter step up from Eb

------------------------------------|-----------------------------------------
------------------------------------|-----------------------------------------
------------------------------------|-----------------------------------------
------------------------------------|-----------------------------------------
-3-----2-----3-----2-----3---2------|-----------------------------------------
---0-0---0-0---0-0---0-0---0---0----|-----------------------------------------
P.M. The E's This is the intro First Guitar

---------------------------------|--------------------------------------------
---------------------------------|--------------------------------------------
------------10----------------12-|--------------------------------------------
-----2------10--------2-------12-|--------------------------------------------
-----2------8---------2-------10-|--------------------------------------------
-----0----------------0----------|--------------------------------------------
Second Guitar Intr0

------------------------------------------------------------------------------
------------------------------------------------------------------------------
----------------------------------3-------------------------------------------
----------------------------------3------------------------------------5------
----3-----2----------3-----2------1------3-----2---------3-----2-------5------
------0-0---0-0-0-0----0-0---0-0-----------0-0---0-0-0-0---0-0---0-0---3------
P.M . . Main Riff . . . . . . . . . . . . . .

------------------------------------------------------------------------------
------------------------------------------------------------------------------
----------------------------------------10------------------------------------
---------2------------------------------10-------------2----------------------
---------2------------------------------8--------------2----------------------
---------0---------------------------------------------0----------------------
Chorus Can't you guess what this has done to us, It gave us power

--------------------------|---------------------------------------------------
--------------------------|---------------------------------------------------
----------12--------------|---------------------------------------------------
----------12--------------|---------2----------3----2-----3-3-----------------
----------10--------------|---3-----2--------3---3--2-----3-3-----------------
--------------------------|-----0-0-0----0-1--------0--0--1-1-----------------
its the way of life...... Before 2nd verse

----------------------------------------------------|-------------------------
----------------------------------------------------|-------------------------
----------------------------------------------------|-------------------------
--3--3--3--3--3--3--3--3--3--3--3--3--3--3--3--3----|-------------------------
--3--3--3--3--3--3--3--3--3--3--3--3--3--3--3--3----|--3-----2----------------
--1--1--1--1--1--1--1--1--1--1--1--1--1--1--1--1----|----0-0------------------
P.M............................................ bend 2 up & down

------------------------|-----------------------------------------------------
------------------------|-----------------3---------------3-------------------
------------------------|----------1--------4-------1-------4-----------------
--------3---2-----3--3--|------------3-2--------------3-2---------------------
------3---3-2-----3--3--|-----------------------------------------------------
--0-1-------0--0--1--1--|---0-0-0-------------0-0-0------------0-0-0----------
P.M . . . Middle Part . . . . . .

----------------------5---|---------------|---------------17----|-------------
-------3-----5-3--6-3---6-|---------------|---17-15-18-15----18-|-------------
-1-------4----------------|-----------2---|---------------------|-------------
---3-2--------------------|---2-0-3-0---3-|---------------------|-------------
--------------------------|---------------|---------------------|-------------
--------------------------|---------------|---------------------|-------------
second guitar 3rd guitar

-----------------------------------------------------------------|------------
-----------------------------------------------------------------|------------
-------10--9------9-9-10109-1010----14-14-14-13---10--9---7----9-|------------
-----------------------------------------------------------------|------------
-------8---7------7-7-8-8-7-8-8-----12-12-12-11---8---7---5----7-|------------
-----------------------------------------------------------------|------------
Middle Lead

-------------------------------------------------------------------|----------
-------------------------------------------------------------------|----------
---4--4-4-5-5-4-5-5------14--14---14--14---13----10--9---7-----9---|----------
-------------------------------------------------------------------|----------
---2--2-2-3-3-2-3-3------12--12---12--12---11----8---7---5-----7---|----------
-------------------------------------------------------------------|----------


--13-12--13--15--13--15--17--15---17-19--17---19-20-19--20---22b--22b|--------
---------------------------------------------------------------------|--------
---------------------------------------------------------------------|--------
---------------------------------------------------------------------|--------
---------------------------------------------------------------------|--------
---------------------------------------------------------------------|--------
Some of the lead....need help with some of this

-12---17p15p12------12--17-15-12------15--12-----------------------|----------
----------------15----------------17----------17--15---17p15p12--12|----------
-------------------------------------------------------------------|----------
-------------------------------------------------------------------|----------
-------------------------------------------------------------------|----------
-------------------------------------------------------------------|----------
Im stuck after this. There is some sweep picking after

------------------------------------------|-----------------------------------
------------------------------------------|-----------------------------------
------------------------------------------|-----------------------------------
------------------------------------------|-----------------------------------
--------3-----2-----3-----2-----3---2-----|-----------------------------------
----------0-0---0-0---0-0---0-0---0---0---|-----------------------------------
this but anyone that can help with the solo would be appreciated.

------------------------------------------------------------------|-----------
------------------------------------------------------------------|-----------
---------12--------12--------12--------12-------12----------12----|-----------
------------12--------12--------12--------14-------14----14-------|-----------
---------------14--------14--------14--------14-------14----------|-----------
------------------------------------------------------------------|-----------
The above riff goes with this. im not sure of this but.....P.M this

--------------------------------------------------------------v22bv-----------
------------------------------------------------------------------------------
------------------------------------------------------------------------------
-2---------------------------------------------------------------------------
-2---------------------------------------------------------------------------
-0---------------------------------------------------------------------------
END Tremelo bar this E chord down low gradually




Ваше мнение



Капча