Author/Artist: Exodus
Title: Parasite
Album: Pleasures of the Flesh
Transcribed by: Dan Commaroto
Email: [email protected]

[email protected]-------------
---------------------------------------------|--------------------------------
---------------------------------------------|--------------------------------
-----------------------------2-0-2-3-2-0--2--|--------------------------------
-----2-0-2-3-2-0-3-2-5-2-3-2--------------2--|--------------------------------
------------------------------------------0--|--------------------------------
This is somewhat the intro, i need some help i think

------------------------------------------------------------------------------
------------------------------------------------------------------------------
--------------------------------1---------------------------------------------
---------------------------2-3--1--3--2---------------------------------------
---------------------------2-3-----3--2---------------------------------------
----0-000-000-000-000-000----------------0-000-000-000-000-000----------------
Main kick ass riff PM.. ... ... ... ... ...

------------------------------------------------------------------------------
------------------------------------------------------------------------------
--------------------------------------------1---------------------------------
---------------------------------------2-3--1--3----2-------------------------
---------------------------------------2-3-----3----2-------------------------
-4-5-7-5-0------0-000-000-000-000-000---------------0-------------------------
. . . . ... ... ... ... ...

-----------------------------------------------------------------|------------
-----------------------------------------------------------------|------------
-----------------------------------------------------------------|------------
------5--4---------------4-5--------------4-5--4--------------4-5|------------
------3--2--222-222-22-0-2-3-222-222-22-0-2-3--2-222-222-22-0-2-3|------------
-----------------------------------------------------------------|------------
Coming down from behind.......

--------------------------------------------------|----------------------|----
--------------------------------------------------|----------------------|----
--------------------------------------------------|----------------------|----
--------------------------------------------------|----------------------|----
-/-////////////////-----8-------7-6-5-------------|--8------7-6-5--------|----
-/-/////////////////----6--0000-5-4-3-------------|--6-0000-5-4-3--------|----
Pick Slide RUN But you cant hide..... Run its from inside

------------------------------------------------------------------------------
------------------------------------------------------------------------------
------------------------------------------------------------------------------
-----------------------------------------------------2--2---2------2----------
--8-------7-6-5--------------------------------------2--2---2------2----------
--6--0000-5-4-3----4-444-444-444-444-444-444-444-44--0--0---0------0----------
Run Theres no wrong from right PAR A SITE!

---------------------------------------------------------------------------|--
---------------------------------------------------------------------------|--
-----3--3-----2--2--------------------------------------3--3----2--2-------|--
-----3--3-----2--2---2--0--3--0--2----------------------3--3----2--2--2-0-3|--
---------------------2--0--3--0--2------------------------------------2-0-3|--
--0--------0------------------------000-000-000-000--0--------0------------|--
Interlude ... ... ... ... . .

------------------------------------------------------------------------------
------------------------------------------------------------------------------
----3--3-----2--2----------------------------3--3-----2--2--------------------
----3--3-----2--2---2-0-3-0-2----------------3--3-----2--2--0--2--------------
--------------------2-0-3-0-2-------------------------------0--2--------------
-0--------0-------------------000-000-000--0-------0--------------------------
. . ... ... ... . .

--------------------------------------------------------------------------|---
--------------------------------------------------------------------------|---
--------------------------------------------------------------------------|---
----5---------------------------------------------------------------------|---
----3-333-333-333-333-333-333-333-33--5-----------------------------------|---
--------------------------------------3-333-333-333-333-333-333-333-333-33|---
Chords behind the melodic solo, ill figure that out soon

-------------------------------------------------------------------|----------
-------------------------------------------------------------------|----------
-------------------------------------------------------------------|----------
-5-----------------------------------------------------------------|----------
-3-333-333-333-333-333-333-333-33--7-------------------------------|----------
-----------------------------------5-555-555-555-555-555-555-555-55|----------


-------------------------------------------------------------------|----------
-------------------------------------------------------------------|----------
-------------------------------------------------------------------|----------
-------------------------------------------------------------------|----------
-3---------------------------------7-------------------------------|----------
-1-111-111-111-111-111-111-111-11--5-555-555-555-555-555-555-555-55|----------


----------------------------------|-------------------------------------------
----------------------------------|-------------------------------------------
----------------------------------|-------------------------------------------
-10-------------------------------|-------------------------------------------
-8--888-888-888-888-888-888-888-88|-------------------------------------------
----------------------------------|-------------------------------------------
Then the solos which time & help is needed

------------------------------------------------------------------------------
------------------------------------------------------------------------------
------------------------------------------------------------------------------
------------------------------------------------------------------------------
--9---10---------------------------------------9--7--9------------------------
--7---8--888-888-888-888-888-888-888--0-5-7-8--7--5--7-777-777-777-777-777----
After solo, something like this

---------------------------------------------------------------------------|--
---------------------------------------------------------------------------|--
---------------------------------------------------------------------------|--
----------------------------------------2--0--2----------------------------|--
-8------------------------------------0-2--0--2----------------------------|--
-6-666-666-666-666-666-666-666--0-2-3------------000-000-000-000-000-000-00|--


----------------------------------------------------------------------------|-
----------------------------------------------------------------------------|-
----------------------------------------------------------------------------|-
----------------------------------------------------------------------------|-
-8-------------------------------------109-----98----87----7-6----3---3/5|-
-6-000-000-000-000-000-000-000-000--0---87--0--76-0--65--0-5-4--0-1-0-1/3|-
. . . . . .

-----------------------------------------------------------------5--|---------
--------------------------------------------------------------------|---------
-----------------------------------------------------------------6--|---------
----------------------------------------------------2-0-2-3-2-0-/7v-|---------
----------------6--------2--2-0-2-3-2-0-3-2-5-2-3-2-----------------|---------
----------------4--------0------------------------------------------|---------
Ending...From Right

----------------------------------------------|-------------------------------
----------------------------------------------|-------------------------------
----------------------------------------------|-------------------------------
-------------------------------------------2--|-------------------------------
----109----98---87---76-----3----3--5--2--|-------------------------------
--0-8-7--0-76-0-65-0-54--0--1--0-1--3--0--|-------------------------------
. . . . . PARASITE!!!


Ваше мнение



Капча