Exodus
Good Day to Die
Force of Habit
Transcribed by Mike Kimball, March 2002
[[email protected]]
[geocities.com/bloodmetalcontent]
As with all guitar tablature, a mono-spaced font
(e.g. Courier or Monaco) is required to display properly...
Tuning: D (all six according)
Fig. 1
|-----|-------------------------------------------------------------
|-----|-------------------------------------------------------------
|-----|----------------------------3p2-----0h2----------------------
|-----|----------------------------3p2-----0h2----------------------
|--2--|--------2---------------0h2-------------2---------------0h2--
|--0--|--0-0-0-0-----0-0-0-0h3---------0-0-----0-------0-0-0h3------
|-------------------------------------------------------------------
|-------------------------------------------------------------------
|--2-----1-----0---------0------------------------------------------
|--2-----1-----0---------0-----------------------------------7---9--
|--------------------------------------------2-----------9-9-5---7--
|--------------------0-------0---6---5---3-5-0------/7---7-7--------
Fig. 2
|-------------
|-------------
|-------------
|-------------
|--2---1p0----
|----------3--
Fig. 3
|----------------------------------|---------------------------------
|----------------------------------|---------------------------------
|----------------------------------|---------------------------------
|------------------2---------------|------3-----------2---2----------
|--2---------------0---2-------2---|------1p0---------0---0----------
|--0-----0-0-0-3-0-----0---0---0---|--0-0-----0-0-0-0---------3b(5)--
Fig. 4
|-------------------------------------------------------------------
|-------------------------------------------------------------------
|-------------------------------------------------------------------
|--7--5-5-----5---------5------------------------------------------
|--5--3-3---3-3-----3-3-3-----3-3-5/7---5-----2-----------2--------
|----------------------------------3/5---3-----0-------0-0-0---0-0--
|-------------------------------------------------------------------
|-------------------------------------------------------------------
|-------------------------------------------------------------------
|--7--5-5-----5---------5-7-----9----------------------------------
|--5--3-3---3-3-----3-3-3-5-----7----------------------------------
|------------------------------------------------------0-0-0-0-0-0--
[ending]
|----------------------------------
|----------------------------------
|--------------0-------------------
|--7--5-5-----2-------------------
|--5--3-3---3-3-------------------
|----------------------------------
Solo 1
|------------------------------------------------------------------
|------------------------------------------------------------------
|--7/9---9---9---9---9/11---11---11---11---11/12---12---12---12----
|------------------------------------------------------------------
|--5/7---7---7---7---7/*9---*9---*9---*9---*9/10---10---10---10----
|------------------------------------------------------------------
|------------------------------------------------------------------
|------------------------------------------------------------------
|--12/14---14---14---14---145---5---5---5---5/7---7---7/9---9-----
|------------------------------------------------------------------
|--10/12---12---12---12---123---3---3---3---3/5---5---5/7---7-----
|------------------------------------------------------------------
|------------------------------------------------------------------
|------------------------------------------------------------------
|--7/9---9---9---9---9/11---11---11---11---11/12---12---12---12----
|------------------------------------------------------------------
|--5/7---7---7---7---7/*9---*9---*9---*9---*9/10---10---10---10----
|------------------------------------------------------------------
|------------------------------------------------------------------
|------------------------------------------------------------------
|--12/5---5---5---5---57---7---7---7---7/9---9---9/12---9---------
|------------------------------------------------------------------
|--10/3---3---3---3---35---5---5---5---5/7---7---7/10---7---------
|------------------------------------------------------------------
|----------/12----8h12p8p7---8--8-----------------------------
|-------7-8-------------------10-10b(12)-8h12p8-7h8p7---------
|--/9------------------------------------------------9-7h9p7--
|-------------------------------------------------------------
|-------------------------------------------------------------
|-------------------------------------------------------------
|------------------------------------------------------------------------
|------------------------------------------------------------------------
|--5h7p5-4h5p4-4~------------4-----4-------------------------------------
|-------------7----------------5-7---5-7-4-5---4-----4-5---4-------------
|--------------------------------------------7---5-7-----7---5/75~------
|------------------------------------------------------------------------
|-----------------------------------------------------------------------------
|--15---------15----15----15----15--------------------------------------------
|--14b(16)---(16)--(16)--(16)--(16)r(14)-12----14----12----14b(16)r(14)-12----
|-------------------------------------------14----14----14-----------------14-
|-----------------------------------------------------------------------------
|-----------------------------------------------------------------------------
|----------------------------12-12--------12--------12---------
|----------------------------12---15p12-----15p12-----15p12----
|--14b(16)-12~-------14b(16)-----------14b-------14b-------14b-
|--------------------------------------------------------------
|--------------------------------------------------------------
|--------------------------------------------------------------
|--12--------12--------12--------12-------------------------------
|----15p12-----15p12-----15p12-----15p12---15b(17)-----(17)r(15)--
|---------14b-------14b-------14b-------14b-----------------------
|-----------------------------------------------------------------
|-----------------------------------------------------------------
|-----------------------------------------------------------------
Solo 2
|-----------------------------------------------------------------------------
|--20b(22)r(20)---20~----17h18p17---------------------------------------------
|---------------------------------19-17-16-17-16h17p16------------------------
|------------------------------------------------------19-17-16-19-17~--------
|-----------------------------------------------------------------------------
|-----------------------------------------------------------------------------
|---------------------------------------------------------------------------------
|---------------------------------------------------------------------------------
|----------------------------16----16--17--16--16h17p16---16--17--16---16h17p16---
|--16-17-16h17p16---16-17-19----19------------------------------------------------
|----------------19------------------------------------19----------------------19-
|---------------------------------------------------------------------------------
|-----------------------------------17-19-20-19~--20b(22)r(20)---19-20-17-20-15-20-
|---------------------------17-19-20-----------------------------------------------
|--16-17---16h17p16---16~----------------------------------------------------------
|------------------19--------------------------------------------------------------
|----------------------------------------------------------------------------------
|----------------------------------------------------------------------------------
|-----20----20-17-20-19-17-19~------------------------------------------------
|--19----17----------------------15-----13b(15)r(13)---13~--12-13-12h13p12---
|--------------------------------------------------------------------------14-
|-----------------------------------------------------------------------------
|-----------------------------------------------------------------------------
|-----------------------------------------------------------------------------
|--------------------------------------------------------------------
|--12h13h15p13p12--12h13h15p13p12--12h13h15p13p12--------------------
|----------------14--------------14--------------14-11h12h14p12p11---
|-----------------------------------------------------------------14-
|--------------------------------------------------------------------
|--------------------------------------------------------------------
|------------------------------------------------------
|------------------------------------------------------
|------------------------------------------------------
|--10h12h14p12p10--------------------------------------
|----------------14-10h12h14p12p10---------------------
|---------------------------------14p12p10-12~~--------

****FOR EDUCATIONAL USE ONLY!! USE THIS FOR COMMERCIAL****
****PURPOSES, AND WE WILL HUNT YOU DOWN, KILL YOU, THEN****
****TORTURE YOUR IMMORTAL SOUL FOR ALL ETERNITY!!!!!!!!****




Ваше мнение



Капча