Exodus
Faster Than You'll Ever Live To Be
Pleasures of the Flesh
Transcribed by Mike Kimball, Jan 2002
[[email protected]]
[geocities.com/bloodmetalcontent]
As with all guitar tablature, a mono-spaced font
(e.g. Courier or Monaco) is required to display properly...
Fig. 1
|---------------------------------------------------------------
|---------------------------------------------------------------
|---------------------------------------------------------------
|--11--10--9--10--9--8--9--8--7--8--7--6--7--6--5--6--5--4--3---
|--11--10--9--10--9--8--9--8--7--8--7--6--7--6--5--6--5--4--3---
|--*9--*8--7--*8--7--6--7--6--5--6--5--4--5--4--3--4--3--2--1---
Fig. 2
|------------------------------------------------------------------
|------------------------------------------------------------------
|------------------------------------------------------------------
|----------2---------------2-4-5-----------2---5-------------------
|--4-3---2-0-------4-3---2-0-2-3---4-3---2-0---3-------------------
|--------------------------------------------------2-22222222222-2-
Fig. 3
|------------------------------------------------------------------
|------------------------------------------------------------------
|------------------------------------------------------------------
|--7-8-----8-9-----7-8-----8-7-----7-8-----8-9---7-9---------------
|--7-7-----7-7-----7-7-----7-7-----7-7-----7-7---5-7---------------
|--------0-------0-------0-------0-------0-----------00000000000-0-
Fig. 4
|------------------------------------------------------------------
|------------------------------------------------------------------
|------------------------------------------------------------------
|--4-5-----4-2---5-4---------------4-5-----4-2---4-5-4-----4-------
|--4-5-----4-2---5-4---------------4-5-----4-2---4-5-4-----4-------
|--------2-----------22222222222-2-------2---------------2-------2-
|------------------------------------------------------------------
|------------------------------------------------------------------
|------------------------------------------------------------------
|--4-5-----4-2---5-4---------------4-5---4-----4-------------------
|--4-5-----4-2---5-4---------------4-5---4-----4-------------------
|--------2-----------22222222222-2---------2-0-2-------------------

Fig. 5
|--------------------------------------------------------------------
|--------------------------------------------------------------------
|--------------------------------------------------------------------
|--3-2-----------------------------3-2-------------------------------
|--1-0-4---5-4-2---4-2-4---5-4-----1-0-4---5-4-2---5-4---------------
|------2---3-2-0---2-0-2---3-2---------2---3-2-0---3-2-222222222222--
(.....)
|--------------------------------------------------------------------
|--------------------------------------------------------------------
|--------------------------------------------------------------------
|--3-2-----------------------------3-2-------------------------------
|--1-0-4---5-4-2---4-2-4---5-4-----1-0-4-5-4-2-4-3-------------------
|------2---3-2-0---2-0-2---3-2---------2-3-2-0-2-1-------------------
Fig. 6
|------------------------------------------------------------------
|------------------------------------------------------------------
|------------------------------------------------------------------
|----------------------------------------------------------2-4-----
|--0-2---3---------0-2---3-2-2---4-0-2---3---------0-2---3-0-2---4-
|----------2-222222--------0-0---2---------2-222222--------------2-
Fig. 7
|------------------------------------------------------------------
|------------------------------------------------------------------
|------------------------------------------------------------------
|--5-----4-----3-----2-----------------3---------------------------
|--3-----2-----1-----0-----6-----5-----1---------------------------
|--------------------------4-----3---------------------------------
Fig. 8
|------------------------------------------------------------------
|------------------------------------------------------------------
|------------------------------------------------------------------
|----------2-------------------------------------------------------
|--4-3---2-0-----------------------4-------0-2---3-4---------------
|------------2222222222222222222-0-2-222222----------22222222222-0-
|------------------------------------------------------------------
|------------------------------------------------------------------
|------------------------------------------------------------------
|------------------------------------------------------------------
|--4-------4-3---2-0---------------4-------4-2---4-5-4---2-4-2-4-5-
|--2-222222----------22222222222-0-2-2222222-0---2-3-2---0-2-0-2-3-
Fig. 9
|------------------------------------------------------------------
|------------------------------------------------------------------
|------------------------------------------------------------------
|------------------------------3---------------2-------------------
|--2-1---0-5-------2-1---0-5-0-1---2-1---0-5---0-------------------
|----------3---------------3---------------3-------0-0000000000000-
Visit MetalTabs.com for more metal tablatur




Ваше мнение



Капча