Exodus
Fabulous Disaster
Fabulous Disaster
Transcribed by Mike Kimball
[[email protected]]
[geocities.com/bloodmetalcontent]
As with all guitar tablature, a mono-spaced font
(e.g. Courier or Monaco) is required to display properly...
Fig. 1
|-----------------------------------
|-----------------------------------
|-----------------------------------
|-----------------------------------
|-----------------------------------
|--2--2--5--4----0--2--2--5---4-540-
Fig. 2
|------------------------------------------------------
|------------------------------------------------------
|------------------------------------------------------
|------------------------------------------------------
|----------4---3---2---0-3-6-0-3-6---------4---3---2---
|--2-222222--2---2---4-------------2-222222--2---2---4-
|__||__| |__||__|
|-------------------------------------------------------
|-------------------------------------------------------
|-------------------------------------------------------
|-------------------------------------------------------
|--0-3-6-0-3-6---------4---3---2---0-3-6-0-3-6----------
|--------------2-222222--2---2---4-------------2-222222-
|__||__| |__||__|
|----------------
|----------------
|--6---5---4-----
|--6---5---4-----
|--4---3---2-----
|----------------
Fig. 3
|-----------------------------------------------------
|-----------------------------------------------------
|-----------------------------------------------------
|--4-----------4---4-----------4---4-----------4---4--
|--4-----3-6-0-4---4-----3-6-0-4---4-----3-6-0-4---4--
|--2---4-------2---2---4-------2---2---4-------2---2--
|_____| |____ |_____| |____ |_____| |____
|--------------------
|--------------------
|--------------------
|---4----------------
|---4----------------
|---2---222222222222-
|__||__||__|
Fig. 4
|------------------------------------------------------
|------------------------------------------------------
|--2---2---------------------------5---5---------------
|--2---2-----------4---4-----------5---5-----------4---
|--0---0-----------4---4-----------3---3-----------4---
|----------0-2222222---2---2-2-0-2---------0-2222222---
| _||__| | _||__|
|------------------------------------------------------
|------------------------------------------------------
|--------------7---7-----------------------------------
|--4-----------7---7-----------2---2-----------4-------
|--4-----------5---5-----------2---2-----------4-------
|--2---2-2-0-2---------0-2222220---0---0-2222222---2-2-
|--------------------------
|--------------------------
|--------------------------
|--------------------------
|--------------------------
|--2-2-2-2-2-2-2-2-2-2-0-2-
Visit MetalTabs.com for more metal tablatur




Ваше мнение



Капча