=================================================================================================

Song: Bonded by Blood
Artist: Exodus
Album: Bonded by Blood

Tabbed by Chris Rezendes ([email protected])

Tuning: Standard

Notation Key
v: vibrato
t: tremolo bar
^: bend
.: palm mute
~: trill
p: pull-off
h: hammer-on
x: ghost note
/: slide up
: slide down

Comments: This song is easy, so I didn't bother putting together for you. If you spot any mistakes, feel free to e-mail me.

=================================================================================================

Intro
e|---------------------------------------------------------------
B|---------------------------------------------------------------
G|---------------------------------------------------------------
D|------5-----5-----5--------------------------------------------
A|------5-----5-----5--------------------------------------------
E|--0-0-3-0-0-3-0-0-3--------------------------------------------

Riff 1 (verse)
e|-------------------------------------------------------------------------------
B|-------------------------------------------------------------------------------
G|-------------------------------------------------------------------------------
D|----------------10-7---------------7---9------------7--------------------------
A|-----------------8-5---------------5-9-7------------5-7-------------5-5--------
E|--0-00-00000000------0-00-00000000---7---0-00000000---5--0-00000000-3-3--------

Fig. 1 (chorus)
this x2 then this
e|---------------------------------------|---------------------------------------
B|---------------------------------------|---------------------------------------
G|---------------------------------------|---------------------------------------
D|---------------------------------------|--------------------------------9------
A|--------2-------2-----5-----5-----5-5--|--------2-------2---8-8-7-8-----7------
E|--0-0-0-0-0-0-0-0-0-0-3-0-0-3-0-0-5-3--|--0-0-0-0-0-0-0-0---6-6-5-6-----0------

Riff 2 (under solo)
e|-------------------------------------------------------------------------------
B|-------------------------------------------------------------------------------
G|-------------------------------------------------------------------------------
D|----------------10-7---------------7------------------7-----------------9------
A|-----------------8-5---------------5-9----------------5-7---------------7------
E|--0-00-00000000------0-00-00000000---7-0-00-00000000----5-0-00-00000000--------

Riff 3 (under solo)
e|---------------------------------------------------------------
B|---------------------------------------------------------------
G|---------------------------------------------------------------
D|---------------------------------------------------------------
A|--4------------------------5-----------------------------------
E|--2-22-222222222222222-0-0-3-0---------------------------------




Ваше мнение



Капча