Intro
E |-----------------------|
B |-----------------------|
G |-----------------------|
D |------0----------------|
A |--0h2------------------|
E |-----------------------|
then go right into E

Chords (Yesterday, just a dream i dont remember . . .)
E (mute) G (mute)
E |-0----0-0---X-X--1----1-1---X-X-|
B |-0----0-0---X-X--1----1-1---X-X-|
G |-1----1-1---X-X--0----0-0---X-X-|
D |-2----2-2---X-X--0----0-0---X-X-|
A |-2----2-2---X-X--2----2-2---X-X-|
E |-0----0-0---X-X--3----3-3---X-X-|

C (mute) A (mute)
E |-0----0-0---X-X--0----0-0---X-X-|
B |-1----1-1---X-X--2----2-2---X-X-|
G |-0----0-0---X-X--2----2-2---X-X-|
D |-2----2-2---X-X--2----2-2---X-X-|
A |-3----3-3---X-X--0----0-0---X-X-|
E |-0----0-0---X-X--0----0-0---X-X-|

Chorus (C'mon and watch me shine)
Em
E |-------0-------0-------0--2-0--|
B |-------------------------------|
G |-------------------------------|
D |-2-2-----2-2-----2-2-----------|
A |-2-2-----2-2-----2-2-----------|
E |-0-0-----0-0-----0-0-----------|




Ваше мнение



Капча