Today - Everlast
Tabbed By Dave Novini ([email protected])
This is a cool song. It it played on an acoustic guitar. Standard tuning.
Intro
e----------------------------------------------------------|
B----------------------------------------------------------|
G----------------------------------------------------------|
D-------0--------------------------------------------------|
A---0-2----------------------------------------------------|
E----------------------------------------------------------|
e-----------------------------------------------------------|
B---------------------------------------------2---2---2---2-|
G----2---2---2--2-----------------------------2---2---2---2-|
D----2---2---2--2----------------2--2--2--2-----------------|
A----2---2---2--2---2--2--2--2---3--3--3--3-----------------|
E-------------------3--3--3--3------------------------------|
Thats All I Know See Y'all Latez.
Ez. Sean Olsen




Ваше мнение



Капча