#----------------------------------PLEASE NOTE---------------------------------#
#This file is the author's own work and represents their interpretation of the #
#song. You may only use this file for private study, scholarship, or research. #
#------------------------------------------------------------------------------#
Band: Santana (featuring Everlast)
Song: Put Your Lights On
Album: Supernatural
Transcribed by: Ed Sawey ([email protected])
Intro/Verse (Repeat 2 x's for intro and 4 x's for verse)
Am Cmaj
e-------------------------------|----------------------------|
B--1----1---0--0-1--------1-1-1-|--1----3-3-3-3--1--0--------|
G--2----2---2--2-2--------2-2-2-|----------------------------|
D--2----2---2--2-2--------2-2-2-|--2----2-2-2-2--2--2--------|
A-------------------------------|--3----3-3-3-3--3--3--------|
E--x----x---x--x-x--------x-x-x-|--x----x-x-x-x--x--x--------|
G/D Fmaj7 Emaj (let ring)
e--3----3-3-3-3--0-----0-0-0-0-|-----------------------------|
B--3----3-3-3-3--3-----3-3-3-3-|--1---1--1-------------------|
G------------------------------|--2---2--2-1-----------------|
D------------------------------|--3---3--3-2-----------------|
A--2----2-2-2-2--2-----2-2-2-2-|--3---3--3-2-----------------|
E--3----2-3-3-3--3-----3-3-3-3-|--x---x--x-x-----------------|
Hey now, all you sinners
Put your lights on, put your lights on
Hey now, all you lovers
Put your lights on, put your lights on
Hey now, all you killers
Put your lights on, put your lights on
Hey now, all you children
Leave your lights on, you better leave your lights on
Chorus (repeat 8 x's)
Am Emaj
e-------------------------------|---------------------------|
B--1----1---0--0-1--------1-1-1-|---------------------------|
G--2----2---2--2-2--------2-2-2-|--1----1---1--1-1----------|
D--2----2---2--2-2--------2-2-2-|--2----2---2--2-2----------|
A-------------------------------|--2----2---2--2-2----------|
E--x----x---x--x-x--------x-x-x-|---------------------------|

There's a monster, living under my bed
Whispering in my ear
There's an angel, with a hand on my head
Say's I've got nothing to fear
There's a darkness, deep in my soul
I still got a purpose to serve
So let your light shine, into my home
God don't let me lose my nerve
Don't let me lose my nerve
Bridge
Cmaj5 C#maj5 Gmaj5 Fmaj5 Emaj5
e------------------|---------------------|
B------------------|---------------------|
G--5--5----6--6----|---------------------| (4 times)
D--5--5----6--6----|--5--5----3-3-3-2--2-|
A--3--3----4--4----|--5--5----3-3-3-2--2-|
E------------------|--3--3----1-1-1------|
Emaj5 Fmaj5 Emaj5(let ring)
e------------------------|
B------------------------|
G------------------------| (1 time)
D--2--2--------3-3-3-2---|
A--2--2--------3-3-3-2---|
E--------------1-1-1-----|
(Back to Verse) 4 x's
Hey now, Hey now, Hey now, Hey now
Wo-oh Hey now, Hey now, Hey now, Hey now
Hey now, all you sinners
Put your lights on, put your lights on
Hey now, all you children
Leave your lights on, you better leave your lights on
(Chorus) 2 x's
There's a monster, living under my bed
Whispering in my ear
There's an angel, with a hand on my head
Say's I've got nothing to fear
(Back to Verse) 2 x's
She says, Whooo-ahha hey la la
You shine like stars
Whooo-aohaha hey la la
You shine like stars
And fade away
(Ending)
Am
e------------------------|
B--1-------3---1--0---1--|
G--2---------------------|
D--2---------------------|
A------------------------|
E--x---------------------|




Ваше мнение



Капча