Hey wazz upp I am Uncle Sam
This TAB is from Everlast
Love for real
acoustic
Use capo in the 7 treat
Intro
Repeat 4 times I not about the intro
E ------------------------0---0------------------
B -------------------------------5-5-h-7-5-------
G -----------------------------------------------
D -------5-p-3--0-h-2-0-h-2----------------------
A -0-h-2-----------------------------------------
E -----------------------------------------------
Verse
REPEAT THIS SIX TIMES
THE SIX TIME YOU SLIDE SO YOU GET TO THE CHORUS
E Am PLAY THIS PART THE LAST 6 TIME
[ ]
E --0-0-0-0-0-0-0-0-0-0-0-0-0-0---0-0-0-0--------
B --0-0-0-0-0-0-0-1-1-1-1-1-1-1-S-3-3-3-3--------
G --0-0-0-0-0-0-0-2-2-2-2-2-2-2-S-4-4-4-4--------
D --2-2-2-2-2-2-2-2-2-2-2-2-2-2-S-4-4-4-4--------
A --2-2-2-2-2-2-2-0-0-0-0-0-0-0---0-0-0-0--------
E --0-0-0-0-0-0-0-0-0-0-0-0-0-0---0-0-0-0--------
chorus

G D
E --3-3-3-3-3-3-3-3-3-3-3-3-3-3-3-3---------------
B --3-3-3-3-3-3-3-3-2-2-2-2-2-2-2-2---------------
G --4-4-4-4-4-4-4-4-3-3-3-3-3-3-3-3---------------
D --5-5-5-5-5-5-5-5-0-0-0-0-0-0-0-0---------------
A --5-5-5-5-5-5-5-5-0-0-0-0-0-0-0-0---------------
E --3-3-3-3-3-3-3-3-0-0-0-0-0-0-0-0---------------
E C
E --0-0-0-0-0-0-0-0-0-0-0-0-0-0-0-0---------------
B --0-0-0-0-0-0-0-0-1-1-1-1-1-1-1-1---------------
G --0-0-0-0-0-0-0-0-0-0-0-0-0-0-0-0---------------
D --2-2-2-2-2-2-2-2-2-2-2-2-2-2-2-2---------------
A --2-2-2-2-2-2-2-2-3-3-3-3-3-3-3-3---------------
E --0-0-0-0-0-0-0-0-0-0-0-0-0-0-0-0---------------
G D
E --3-3-3-3-3-0-3-3-3-3-3-3-3-3-3-3---------------
B --3-3-3-3-3-3-3-3-2-2-2-2-2-2-2-2---------------
G --4-4-4-4-4-4-4-4-3-3-3-3-3-3-3-3---------------
D --5-5-5-5-5-5-5-5-0-0-0-0-0-0-0-0---------------
A --5-5-5-5-5-5-5-5-0-0-0-0-0-0-0-0---------------
E --3-3-3-3-3-3-3-3-0-0-0-0-0-0-0-0---------------
VERSE
REPEAT THIS SIX TIMES
THE SIX TIME YOU SLIDE SO YOU CAN GET TO THE CHORUS
E Am
E --0-0-0-0-0-0-0-0-0-0-0-0-0-0---0-0-0-0--------
B --0-0-0-0-0-0-0-1-1-1-1-1-1-1-S-3-3-3-3--------
G --0-0-0-0-0-0-0-2-2-2-2-2-2-2-S-4-4-4-4--------
D --2-2-2-2-2-2-2-2-2-2-2-2-2-2-S-4-4-4-4--------
A --2-2-2-2-2-2-2-0-0-0-0-0-0-0---0-0-0-0--------
E --0-0-0-0-0-0-0-0-0-0-0-0-0-0---0-0-0-0--------
2ND CHORUS
G D
E --3-3-3-3-3-3-3-3-3-3-3-3-3-3-3-3---------------
B --3-3-3-3-3-3-3-3-2-2-2-2-2-2-2-2---------------
G --4-4-4-4-4-4-4-4-3-3-3-3-3-3-3-3---------------
D --5-5-5-5-5-5-5-5-0-0-0-0-0-0-0-0---------------
A --5-5-5-5-5-5-5-5-0-0-0-0-0-0-0-0---------------
E --3-3-3-3-3-3-3-3-0-0-0-0-0-0-0-0---------------
E --0-0-0-0-0-0-0-0-0-0-0-0-0-0-0-0---------------
B --0-0-0-0-0-0-0-0-1-1-1-1-1-1-1-1---------------
G --0-0-0-0-0-0-0-0-0-0-0-0-0-0-0-0---------------
D --2-2-2-2-2-2-2-2-2-2-2-2-2-2-2-2---------------
A --2-2-2-2-2-2-2-2-3-3-3-3-3-3-3-3---------------
E --0-0-0-0-0-0-0-0-0-0-0-0-0-0-0-0---------------
G D
E --3-3-3-3-3-3-3-3-3-3-3-3-3-3-3-3---------------
B --3-3-3-3-3-3-3-3-2-2-2-2-2-2-2-2---------------
G --4-4-4-4-4-4-4-4-3-3-3-3-3-3-3-3---------------
D --5-5-5-5-5-5-5-5-0-0-0-0-0-0-0-0---------------
A --5-5-5-5-5-5-5-5-0-0-0-0-0-0-0-0---------------
E --3-3-3-3-3-3-3-3-0-0-0-0-0-0-0-0---------------
Repeat 2 times
E --0-0-0-0-0-0-0-0-0-0-0-0-0-0-0-0---------------
B --0-0-0-0-0-0-0-0-1-1-1-1-1-1-1-1---------------
G --0-0-0-0-0-0-0-0-0-0-0-0-0-0-0-0---------------
D --2-2-2-2-2-2-2-2-2-2-2-2-2-2-2-2---------------
A --2-2-2-2-2-2-2-2-3-3-3-3-3-3-3-3---------------
E --0-0-0-0-0-0-0-0-0-0-0-0-0-0-0-0----------------
G D
E --3-3-3-3-3-3-3-3-3-3-3-3-3-3-3-3---------------
B --3-3-3-3-3-3-3-3-2-2-2-2-2-2-2-2---------------
G --4-4-4-4-4-4-4-4-3-3-3-3-3-3-3-3---------------
D --5-5-5-5-5-5-5-5-0-0-0-0-0-0-0-0---------------
A --5-5-5-5-5-5-5-5-0-0-0-0-0-0-0-0---------------
E --3-3-3-3-3-3-3-3-0-0-0-0-0-0-0-0---------------
BACK TO VERSE
Chorus 4 times

Well thats it felas I hope you enjoyit this tab
Any coment writte to [email protected]
If you got a conplain dont even writte.




Ваше мнение



Капча