Artist: Everlast
Album: Eat at whitey’s
Song: Graves to Dig
Transcribed by: Dan [email protected]

Standard tuning: e B G D A E

e-----------8----------------8-------------8----------------8-----
B------9------9----9--9----9---9------9------9----9--9----9---9---
G---10---10-----10------10---------10---10-----10------10---------
D-----------------------------------------------------------------
A-----------------------------------------------------------------
E-----------------------------------------------------------------

E-----------6----------------6-------------6----------------6-----
B------9------9----9--9----9---9------9------9----9--9----9---9---
G---10---10-----10------10---------10---10-----10------10---------
D-----------------------------------------------------------------
A-----------------------------------------------------------------
E-----------------------------------------------------------------

Repeat, as many times as needed that’s it.




Ваше мнение



Капча