t. See http://www.olga.net/faq/ for more information. #

From: "Zoo Phil"
Subject: e/everlast/ends.tab
Date: Thu, 28 Oct 1999 12:41:55 PDT

Capo on the third fret

Intro and chorus : E/D/C

After you played the intro and the chorus you must always play that riff
quickly

e---------------------------------------------------------------------
b---------------------------------------------------------------------
g---------------------------------------------------------------------
d----------------------------5-----------0----------------------------
a-----0---------2-----------------------------------------------------
E---------------------------------------------------------------------

The verse goes like this : E/A

While you're playing each A you must play very fastly under this chords
something like this :

e---------------------------------------------------------------------
b------2---2----2---2---2h3p2-----------------------------------------
g------2---2----------------------------------------------------------
d------2---2----------------------------------------------------------
a---------------------------------------------------------------------
E---------------------------------------------------------------------

Solo :
e---------------------------------------------------------------------
b---------------------------------------------------------------------
g----------------------0---------------------------0------------------
d---------5--0----2-----------------5--0----2--------------5---0---7--
a--0--2---------------------0--2---------------------0--2-------------
E---------------------------------------------------------------------

e---------------------------------------------------------------------
b-----------------------------------------------------------
g-0------------------------0-------------------------------
d--------------5---0---2-----------------------------------
a------0--2-----------------------------------------------------
E--------------------------------------------------------------

e---------------------------------------------------------------------
b---------------------------------------------------------------------
g---------------------------------------------------------------------
d-----------5--0---9---7----------5--0---9----7-----------5--0----2---
a---0---2------------------0---2-------------------0---2--------------
E---------------------------------------------------------------------

e-------------------------------------------------------------------
b----------------------------------------------------------------
g--0--------------------------0-------------------------------------
d--------------5---0-----2------------------------------------------
a------0--2--------------------------------------------------------
E---------------------------------------------------------------------

If you have any comments [email protected]




Ваше мнение



Капча