Name: brad condo
Tabs: Tabbed by: brad condo ([email protected])
Black Jesus by Everlast
This song is very easy to play. Figure out the timing on the verse, he
palm mutes betweeen every chord change.
Intro 2x
E|---------3-------------------6-----------------5-----------
B|-----------------------------------------------------------
G|-----------------------------------------------------------
D|----5-------5---5-------8-------8---8-----7------7---7-----
A|------5-------5-----------8-------8---------7------7-------
E|--3------------------6-----------------5-------------------
E|---------1---------
B|-------------------
G|-------------------
D|----3------3----3--
A|------3------3-----
E|-1-----------------

Verse/Chorus
G Am A F
E|-3--xx-6-xx--5-xx--1------
B|-3--xx-6-xx--5-xx--1------
G|-4--xx-7-xx--6-xx--2------
D|-5--xx-8-xx--7-xx--3------
A|-5--xx-8-xx--7-xx--3------
E|-3--xx-6-xx--5-xx--1------
Bridge (played at 2:27-2:39)
G F
E|-3---1------
B|-3---1------
G|-4---2------
D|-5---3------
A|-5---3------
E|-3---1------
---------------------------------------------------------------------------




Ваше мнение



Капча