Everclear- Your Genius Hands
World of Noise

Tabbed by Tom Morris

>> strum

INTRO
G---------------------
D---------------------
A-5>>-----------------
E---------------------

VERSE

G----------------|
D----------------|
A-5-5-5-5-5-5-5-5|
E----------------|
G--------------------------------|
D--------------------------------|
A-5-5-5-5-7-7-7-7-5-5-5-5-9-9-7-7|
E--------------------------------|

ANOTHER PART

G-----------------------------|
D-----------------------------|
A-------5------5-5-5-5-5-5-5-5|
E-7-6-5--5-4-3----------------|

Some variations toward end.

I think thats it. Not quite sure of the order. Its not too difficult.
Corrections? Submit them.




Ваше мнение



Капча