name: william
artist: everclear
SongTitle: wonderful
Tabs:
theses are just the chords, listen to the song for strumming
intro (strum chords once)
e-------------------------------------------
B------------------------------------------
G--------7----5----7---------------------
D---5----7----5----7--------------------
A---5----5----3----5--------------------
E---3------------------------------------
verse
e----------------------------------------------------
B---------------------------------------------------
G---------------------9---7----9--5---9--7----
D----------------5----9---7----9--5---9--7----
A------------3---5----7---5----7--3---7--5----
E----3---5-------3-------------------------------
chorus
e-------------------------------------------------
B------------------------------------------------
G----5----5---------------------5------7-----
D----5----5---5---------5-------5------7-----
A----3----5---5---------5-------3------5------
E---------------3----0--3----------------------
part after chorus
e---------------------------------------------------------
B--------------------------------------------------------
G-----------9------7------9-------5------9-----7------
D--5--------9------7------9-------5------9-----7-----
A--5--------7------5------7-------3------7-----5------
E--3----------------------------------------------------
bridge
e-----------------------------------------------
B----------------------------------------------
G----5----7----------------------------------
D----5----7---5-----4----2------------------
A----3----5---5-----4----2------------------
E-------------3-----2-----------------------
outro
e-------------------------------------------
B------------------------------------------
G------------------------------------------
D---55555------2-----5555------2---5---
A---55555------2-----5555------2---5---
E---33333------------3333----------3---




Ваше мнение



Капча