When It All Goes Wrong Again
Songs From An American Movie Volume 2: Good Time For A Bad Attitude & Antitrust Soundtrack
Words By Art Alexakis
Music By Everclear
TUNE DOWN 1/2 STEP
Intro:
Eb -----------------------------
Bb -----------------------------
Gb -----------------------------
Db -----------------------------
Ab -----------------------------
Eb -3-3-3-1--3-3-3-1-3-3-4-4-3-3
Eb ------------------------------------------------
Bb ------------------------------------------------
Gb ------------------------------------------------
Db ------------------------------------------------
Ab ------------------------------------------------
Eb -3-3-3--1-1-/-3-3-3--1-1-/-3-3-3-------------

(repeat 3-3-31-1/3-3-3 5 times)
Verses:
Eb -5---3---5----3--------------------------------
Bb -----X--------X--------------------------------
Gb -----4--------4--------------------------------
Db -----------------------------------------------
Ab -----------------------------------------------
Eb -----------------------------------------------
Pre Chorus:
Eb -----------------------------------------------
Bb -----------------------------------------------
Gb -9-9-9-9---11-11-11-11-------------------------
Db -9-9-9-9---11-11-11-11-------------------------
Ab -7-7-7-7-/-9--9--9--9--------------------------
Eb -------------------------13-/-18--18-18--17-17
Eb -----------------------------------------------
Bb -----------------------------------------------
Gb -----------------------------------------------
Db -----------------------------------------------
Ab -----------------------------------------------
Eb -17-17---15-15-15-15-13-13-13-13-10-10-10-10
Eb -----------------------------------------------
Bb -----------------------------------------------
Gb ---------------------9-9-9-9---11-11-11-11-11--
Db ---------------------9-9-9-9---11-11-11-11-11--
Ab ---------------------7-7-7-7-/-9--9--9--9--9---
Eb -7-7-7-7--5-5-5-5-----------------------------
Chorus:
Eb -----------------------------------------------
Bb -----------------------------------------------
Gb -----------------------------------------------
Db -5-5--3-3-/-5-5-X-X-X-X-5-5-5--3-3-/-5-5-X-X-
Ab -5-5--3-3-/-5-5-X-X-X-X-5-5-5--3-3-/-5-5-X-X-
Eb -3-3--1-1-/-3-3-X-X-X-X-3-3-3--1-1-/-3-3-X-X-
Eb ---------------------------------------------------
Bb ---------------------------------------------------
Gb ---------------------------------------------------
Db -X-X----------------------X--5-5---3-3---5-5-------
Ab -X-X--10-10-10-10-7-7-7-7-X--5-5---3-3---5-5-------
Eb -X-X--8--8--8--8--5-5-5-5-X--3-3--1-1-/-3-3-------
play chorus 2 twice
Play Verse Again
Pre Chorus
Chorus
On Interlude just play chorus in little riffs.
Then play chorus rest of song.




Ваше мнение



Капча