Volvo Driving Soccer Mom
Slow Motion Daydream
Lyrics By Art Alexakis
Music By Everclear
Tabbed By JR ([email protected])
e-------
b-------
g-------
d-10-10-
a-10-10-
e-8--8--
Na Na
Na Na
Na Na
Na Na
(No Music)
You KNow I Used To Be A
e----------------------
b----------------------
g----------------------
d-10-10--7-7--5-5--3-3/
a-10-10--7-7--5-5--3-3/
e-8--8---5-5--3-3--1-1/
Bad Girl
I Got Busy In The Bathroom In The High School Prom
Yeah I Used To Be A Dancer At The Local Strip Club
But
e------------------------
b------------------------
g------------------------
d-2-2--2-2--3-3--3-3--5-5/
a-2-2--2-2--3-3--3-3--5-5/
e-0-0--0-0--1-1--1-1--3-3/
Now I Know
My Right Wing From My Wrong
e----------------------
b----------------------
g----------------------
d-10-10--7-7--5-5--3-3/
a-10-10--7-7--5-5--3-3/
e-8--8---5-5--3-3--1-1/
Yeah ee-yeah
I really used to be a bad girl
I had a threesome with my sister and her boyfriend Tom
You Know I Used TO Be A Real Wild Child
But
e------------------------
b------------------------
g------------------------
d-2-2--2-2--3-3--3-3--5-5/
a-2-2--2-2--3-3--3-3--5-5/
e-0-0--0-0--1-1--1-1--3-3/
Now, I am
A Volvo Driving Soccer Mom
e---------------------
b---------------------
g---------------------
d-10-10--6-6--5-5--3-3
a-10-10--6-6--5-5--3-3
e-8--8---4-4--3-3--1-1
Na na Na na
Volvo Driving Soccer Mom
Na na Na na
Volvo Driving SOccer Mom
Na na Na na
Na na Na na
e----------------------
b----------------------
g----------------------
d-10-10--7-7--5-5--3-3/
a-10-10--7-7--5-5--3-3/
e-8--8---5-5--3-3--1-1/
You Know I used to be A Bad Girl
I Got Busted For A Posession of my Wizard Shaped Bong
I used to love to do the things they'd tell me not to do
But Now, Im different
Now I Sing A new Song
I Really used to be a bad girl
I got ganged-banged in the bathroom of my highschool prom
Yes I used to be a real wild child

e------------------------
b------------------------
g------------------------
d-2-2--2-2--3-3--3-3--5-5/
a-2-2--2-2--3-3--3-3--5-5/
e-0-0--0-0--1-1--1-1--3-3/
But Now, I am
A Volvo Driving Soccer Mom
e---------------------
b---------------------
g---------------------
d-10-10--6-6--5-5--3-3
a-10-10--6-6--5-5--3-3
e-8--8---4-4--3-3--1-1
Na na Na na
Volvo Driving Soccer Mom
Na na Na na
Volvo Driving SOccer Mom
Na na Na na
Na na Na na
Volvo Driving SOccer Mom
Middle Riff
e-------------------------------------------------
b-------------------------------------------------
g-------------------------------------------------
d-10-10-10-10-10-10-10-10-10-10-10-10-10-10-10-10-
a-10-10-10-10-10-10-10-10-10-10-10-10-10-10-10-10-
e-8--8--8--8--8--8--8--8--8--8--8--8--8--8--8--8--
Middle Riff Cont.

e-------------------------------------------------
b-------------------------------------------------
g-10-10-10-10-10-10-10-10-10-10-10-10-10-10-10-10-
d-10-10-10-10-10-10-10-10-10-10-10-10-10-10-10-10-
a-8--8--8--8--8--8--8--8--8--8--8--8--8--8--8--8--
e-------------------------------------------------
Middle Riff Cont.
e--------------------------------
b--------------------------------
g-7-7-7-7-7-7-7-7-7-7-7-7-7-7-7-7
d-7-7-7-7-7-7-7-7-7-7-7-7-7-7-7-7
a-5-5-5-5-5-5-5-5-5-5-5-5-5-5-5-5
e--------------------------------
Middle Riff Cont.
e-------------------------------------------------
b-------------------------------------------------
g-10-10-10-10-10-10-10-10-10-10-10-10-10-10-10-10-
d-10-10-10-10-10-10-10-10-10-10-10-10-10-10-10-10-
a-8--8--8--8--8--8--8--8--8--8--8--8--8--8--8--8--
e-------------------------------------------------
Where Do All The Porn Stars Go
When The Lights Go Down
(i wonder where)
I Wonder Where All The Porn Stars Go
Causse When You Need One They Are Never around
e-------
b-------
g-------
d-------
a-11-11-
e-9--9--
Middle Riff
e-------------------------------------------------
b-------------------------------------------------
g-------------------------------------------------
d-10-10-10-10-10-10-10-10-10-10-10-10-10-10-10-10-
a-10-10-10-10-10-10-10-10-10-10-10-10-10-10-10-10-
e-8--8--8--8--8--8--8--8--8--8--8--8--8--8--8--8--
Middle Riff Cont.
e-------------------------------------------------
b-------------------------------------------------
g-10-10-10-10-10-10-10-10-10-10-10-10-10-10-10-10-
d-10-10-10-10-10-10-10-10-10-10-10-10-10-10-10-10-
a-8--8--8--8--8--8--8--8--8--8--8--8--8--8--8--8--
e-------------------------------------------------
Middle Riff Cont.
e--------------------------------
b--------------------------------
g-7-7-7-7-7-7-7-7-7-7-7-7-7-7-7-7
d-7-7-7-7-7-7-7-7-7-7-7-7-7-7-7-7
a-5-5-5-5-5-5-5-5-5-5-5-5-5-5-5-5
e--------------------------------
Middle Riff Cont.
e-------------------------------------------------
b-------------------------------------------------
g-10-10-10-10-10-10-10-10-10-10-10-10-10-10-10-10-
d-10-10-10-10-10-10-10-10-10-10-10-10-10-10-10-10-
a-8--8--8--8--8--8--8--8--8--8--8--8--8--8--8--8--
e-------------------------------------------------
Heard They Moved Out To The Suburbs
And Now They Are Blonde Bland, Middle Class Republican Wives
They Got Blonde Bland Middle class republican children
Blonde Bland Middle Class Repubilcan Lives
e-------
b-------
g-------
d-------
a-11-11-
e-9--9--
HUH
e-------------------------------------------------------------------------
b-------------------------------------------------------------------------
g---------------------10-10-X-X-10-10-X-X-7-7-X-X-7-7-X-X-10-10-X-X-10-10-
d-10-10-X-X-10-10-X-X-10-10-X-X-10-10-X-X-7-7-X-X-7-7-X-X-10-10-X-X-10-10-
a-10-10-X-X-10-10-X-X-8--8--X-X-8--8--X-X-5-5-X-X-5-5-X-X-8--8--X-X-8--8--
e-8--8--X-X-8--8--X-X-----------------------------------------------------
Where Do All The Born Starts GO
When The Lights Go Down

e-------
b-------
g-------
d-------
a-11-11-
e-9--9--
Yeah
e-------------------------------------------------------------------------
b-------------------------------------------------------------------------
g---------------------10-10-X-X-10-10-X-X-7-7-X-X-7-7-X-X-10-10-X-X-10-10-
d-10-10-X-X-10-10-X-X-10-10-X-X-10-10-X-X-7-7-X-X-7-7-X-X-10-10-X-X-10-10-
a-10-10-X-X-10-10-X-X-8--8--X-X-8--8--X-X-5-5-X-X-5-5-X-X-8--8--X-X-8--8--
e-8--8--X-X-8--8--X-X-----------------------------------------------------
I Think I know Where All The Porn Stars Go
They All Become
VOLVO DRIVING SOCCER MOM

e-------
b-------
g-------
d-------
a-11-11-
e-9--9--
e---------------------
b---------------------
g---------------------
d-10-10--6-6--5-5--3-3
a-10-10--6-6--5-5--3-3
e-8--8---4-4--3-3--1-1
Na na Na na
Volvo Driving Soccer Mom
Na na Na na
Volvo Driving SOccer Mom
Na na Na na
Na na Na na
Volvo Driving SOccer Mom
e-------
b-------
g-------
d-10-10-
a-10-10-
e-8--8--
Na na
na na
Volvo Driving Soccer Mom
e----
b----
g----
d-10-
a-10-
e-8--




Ваше мнение



Капча