TV Show
Slow Motion Daydream
Lyrics By Art Alexakis
Music By Everclear
Tabbed By JR ([email protected])
e-11---11----12----11
b---12----12----12---
g--------------------
d--------------------
a--------------------
e--------------------
GUITAR 1 (acoustic)
e------------------------------------------------------
b-4~---------------------------------------------------
g-4~---------------------------------------------------
d-4~---------------------------------------------------
a-2~---------------------------------------------------
e------------------------------------------------------
Guitar 2 (electric) *slightly disorted
e------------------------------------------------------
b------------------------------------------------------
g------------------------------------------------------
d-9-9-9-9-9-9-9-9-9-9-9-9-9-9-9-9-9-9-9-9-9-9-9-9-9-9-9
a-9-9-9-9-9-9-9-9-9-9-9-9-9-9-9-9-9-9-9-9-9-9-9-9-9-9-9
e-7-7-7-7-7-7-7-7-7-7-7-7-7-7-7-7-7-7-7-7-7-7-7-7-7-7-7
pm.....................................................
I Walk around in the Market, Late At Night
I Walk Around in the empty house, And I dont know why
Guitar 1
e-4~-----5~---------------4~--------------0~-------------------------------
b-4~-----5~---------------4~--------------0~-------------------------------
g-4~-----4~---------------4~--------------1~-------------------------------
d-6~-----5~---------------6~--------------2~-------------------------------
a-6~-----5~---------------6~--------------2~-------------------------------
e-4~-----3~---------------4~--------------0~-------------------------------
Guitar 2
e--------------------------------------------------------------------------
b-----------------------------------------9~-------------------------------
g-----------------------------------------9~-------------------------------
d-6~------5~--------------6~--------------9~-------------------------------
a-6~------5~--------------6~--------------7~-------------------------------
e-4~------3~--------------4~-----------------------------------------------
I need to be Close to the light So I Walk Around In The Middle OF The Night
GUITAR 1
e------------------------------------------------------
b-4~---------------------------------------------------
g-4~---------------------------------------------------
d-4~---------------------------------------------------
a-2~---------------------------------------------------
e------------------------------------------------------
Guitar 2
e------------------------------------------------------
b------------------------------------------------------
g------------------------------------------------------
d-9-9-9-9-9-9-9-9-9-9-9-9-9-9-9-9-9-9-9-9-9-9-9-9-9-9-9
a-9-9-9-9-9-9-9-9-9-9-9-9-9-9-9-9-9-9-9-9-9-9-9-9-9-9-9
e-7-7-7-7-7-7-7-7-7-7-7-7-7-7-7-7-7-7-7-7-7-7-7-7-7-7-7
pm.....................................................
I Drive Around In The Neigborhood, I wanna lose my house
I drive around on the freeway, guess i wanna lose myself
Guitar 1
e-4~-----5~---------------4~--------------0~-------------------------------
b-4~-----5~---------------4~--------------0~-------------------------------
g-4~-----4~---------------4~--------------1~-------------------------------
d-6~-----5~---------------6~--------------2~-------------------------------
a-6~-----5~---------------6~--------------2~-------------------------------
e-4~-----3~---------------4~--------------0~-------------------------------
Guitar 2
e--------------------------------------------------------------------------
b-----------------------------------------9~-------------------------------
g-----------------------------------------9~-------------------------------
d-6~------5~--------------6~--------------9~-------------------------------
a-6~------5~--------------6~--------------7~-------------------------------
e-4~------3~--------------4~-----------------------------------------------
Turn The Key, Turn the dial, listen to the radio and just drive for a while
Guitar 1
e------
b-4-4-4
g-4-4-4
d-4-4-4
a-2-2-2
e------
Guitar 2
e------
b------
g------
d-9-9-9
a-9-9-9
e-7-7-7
pm......
Yeah Now I Got No Place To Go
Guitar 1
e-0~-----2~---------------3~-------------------------------------
b-0~-----2~---------------3~------------------4-4-4-4-4-4-4-4-4-4
g-1~-----3~---------------4~------------------4-4-4-4-4-4-4-4-4-4
d-2~-----4~---------------5~------------------4-4-4-4-4-4-4-4-4-4
a-2~-----4~---------------5~------------------2-2-2-2-2-2-2-2-2-2
e-0~-----2~---------------3~-------------------------------------
Guitar 2 *Still slightly distorted
e----------------------------------------------------------------
b----------------------------------------------------------------
g----------------------------------------------------------------
d-2~-----4~---------------5~------------------9-9-9-9-9-9-9-9-9-9
a-2~-----4~---------------5~------------------9-9-9-9-9-9-9-9-9-9
e-0~-----2~---------------3~------------------7-7-7-7-7-7-7-7-7-7
I wish i could come home To a life that is just like a TV Show
I wish i could see my television family waiting for me
Where No one fights, and no one screams, No one lies and no one leaves
I dont care how the story ends, i wanna feel, like im living again
e-11--11--12--11
b---12--12--12--
g---------------
d---------------
a---------------
e---------------
Guitar 2 (turn distorion up)
e---------------
b---------------
g---------------
d-9-9-9-9-9-9-9-
a-9-9-9-9-9-9-9-
e-7-7-7-7-7-7-7-
pm.............
I Drive Away from the city
I need to see the sky
I Drive away from the bad things
That Make Me Close my eyes
Guitar 2
e--------------------------------------------------------------------------
b-----------------------------------------9~-------------------------------
g-----------------------------------------9~-------------------------------
d-6~------5~--------------6~--------------9~-------------------------------
a-6~------5~--------------6~--------------7~-------------------------------
e-4~------3~--------------4~-----------------------------------------------
Leave It All, In the past, drive away going no wher fast
e------
b------
g------
d-9-9-9
a-9-9-9
e-7-7-7
Yeah Now I Got no where to go
Guitar 2
e----------------------------------------------------------------
b----------------------------------------------------------------
g----------------------------------------------------------------
d-2~-----4~---------------5~------------------9-9-9-9-9-9-9-9-9-9
a-2~-----4~---------------5~------------------9-9-9-9-9-9-9-9-9-9
e-0~-----2~---------------3~------------------7-7-7-7-7-7-7-7-7-7
I wish I Could Come Home To A Life that is jus like a TV show
I wish i could see my televison family waiting for me
Where no one fights and no one screams
No one lies and no one leaves
I dont care how the story ends....
I wanna feel like i used to feel
Guitar 2 (full distortion)
e------
b------
g------
d-5-5-5
a-5-5-5
e-3-3-3
I wanna feel like Im living Again
Guitar 2
e---------------------------------
b---------------------------------
g-4-4--4-4-4----------6-6--6-6-9-9
d-4-4--4-4-4-4-4--4-4-6-6--6-6-9-9
a-2-2--2-2-2-4-4--4-4-4-4--4-4-7-7
e------------2-2--2-2-------------
Woah Im living again
Woah Im lving Again
Woah Breathing Out and Breathing In
Woah Im living Again
Guitar 2
e---
b---
g-4~
d-4~
a-2~
e---
I walk away from the circle
Need To Find Myself
e-11--11--11--11
b---12--12--12--
g---------------
d---------------
a---------------
e---------------
I think I Need To Start Over......
Guitar 2
e--------
b--------
g-Scrape
d-Scrape
a-Scrape
e--------
Need to start making friends.....
Guitar 2
e------------
b------------
g------------
d-6-6-----2-2
a-6-6-----2-2
e-4-4-----0-0
Breath out
Breath In
I wish i could do it all over again
e--------------------
b--------------------
g--------------------
d-9-9-9-9-9-9-9-9-9-9
a-9-9-9-9-9-9-9-9-9-9
e-7-7-7-7-7-7-7-7-7-7
I wish i could do it all over again
e----------------------------------------------------
b----------------------------------------------------
g----------------------------------------------------
d-2-2-X-X-X-X-4-4-X-X-X-X-5-5-X-X-X-X-9-9-9-9-9-9-9-9
a-2-2-X-X-X-X-4-4-X-X-X-X-5-5-X-X-X-X-9-9-9-9-9-9-9-9
e-0-0-X-X-X-X-2-2-X-X-X-X-3-3-X-X-X-X-7-7-7-7-7-7-7-7
I wish I could go home
To a life that is one that i used to know
I wish i could someday see
Everything Back The Way it used to be
Where no one cries and no one screams
Where no one hits you and no one leaves
Everybody knows how the story ends
All the bad guys loose and the good guys win
I wish i could it all over again
e---
b---
g---
d-9~
a-9~
e-7~
oooooo i wanna feel someday i can really start living again
Guitar 1
e-------------2-2-X-X--------------------
b-4-4-X-X-X-X-2-2-X-X-6-6-X-X-X-X-9-9-X-X
g-4-4-X-X-X-X-3-3-X-X-6-6-X-X-X-X-9-9-X-X
d-4-4-X-X-X-X-4-4-X-X-6-6-X-X-X-X-9-9-X-X
a-2-2-X-X-X-X-4-4-X-X-4-4-X-X-X-X-7-7-X-X
e-------------2-2-X-X--------------------
Woah Im living Again
Woah Im Living Again
Woah Im Living Again
Woooooooah I am living Again
Guitar 2
e---------------------------------
b---------------------------------
g-4-4--4-4-4----------6-6--6-6-9-9
d-4-4--4-4-4-4-4--4-4-6-6--6-6-9-9
a-2-2--2-2-2-4-4--4-4-4-4--4-4-7-7
e------------2-2--2-2-------------
Woah Im Living Again
Woah Im Living Again
Woah Im Living Again
Woah I am Living Again
Guitar 2
e--
b--
g-4
d-4
a-2
e--




Ваше мнение



Капча