Trust Fund
World Of Noise
Words By Art Alexakis
Music by Everclear

intro (strum slowly, hitting each string)
e|----------------
b|--------0-------
g|---0----2-------
d|---2----2-------
a|---2----0-------
E|---0------------

BASSLINE
g|-------------------------------
d|-------------------------------
a|-------------------------------
e|--0--0----0--0---0h3----0--0---

main chord progression
e|--------------------------------
b|--------------------------------
g|--------------------------------
d|---2--2----2--2----7--5---2--2--
a|---2--2----2--2----7--5---2--2--
E|---0--0----0--0----5--3---0--0--

repeat that, then the rhythm changes, play
e|-----------------------------------------------------
b|-----------------------------------------------------
g|-----------------------------------------------------
d|-4-4-4-4-4-4---7-7-7-7-7-7--------6-6-6-6-6-6-6-6-6--
a|-4-4-4-4-4-4---7-7-7-7-7-7--------6-6-6-6-6-6-6-6-6--
e|-2-2-2-2-2-2---5-5-5-5-5-5--------4-4-4-4-4-4-4-4-4--




Ваше мнение



Капча